Song name
# A B C D E F G H I J K L M N O P Q R S T U V W X Y Z

All Time Low - Theraphy chords

Highlighted       Show chord diagrams
All Time Low
Theraphy
Nothing Personal
2009
Submitted by: paramore_fans@yahoo.com

Key: A

Tuning: Standard EADGBe

Chords used:
A -   x02220
E -   022100
F#m - 244222
D -   xx0232
Bm -  x24432


Intro: A--D--F#m-E-D-

Guitar 2:
             A                           D
e|--------------------------|-------------------------|
B|-------2h3p2---------0----|-------2h3p2--------0----|
G|----2------------2------2-|----2------------2-----2-|
D|--------------------------|-0------------0----------|
A|-0------------0-----------|-------------------------|
E|--------------------------|-------------------------|

      F#m           E                  D
e|------------|------------|-------------------------|
B|-------2----|-------2----|-------2h3p2--------0----|
G|----2-----2-|----2-----2-|----2------------2-----2-|
D|------------|------------|-0------------0----------|
A|------------|------------|-------------------------|
E|-2----------|-0----------|-------------------------|


Verse 1:
   A
My ship went down in
  D
a sea of sound
       F#m      E
When I woke up alone
      D
I had everything
  A
A hand full of moments
  D
I wish I could change
      F#m           E
And a tongue like a nightmare
     D
that cut like a blade
     A
In a city of fools I
    D
was careful and cool
         F#m      E
But they tore me apart
       D
like a hurricane
  A
A handful of moments I
D
wish I could change
          F#m E     D
But I was car-ried away


Chorus 1:
        A             E             F#m
Give me therapy I知 a walking travesty
         D
But I知 smiling at everything
A                 E                 F#m
Therapy, you were never a friend to me
            D
And you can keep all your misery


Interlude: A--D--F#m-E-D-


Verse 2:
   A
My lungs gave out
     D
as I face the crowd
             F#m
I think that keeping this
E           D
up could be dangerous
    A
I知 flesh and bone
      D
I知 a rolling stone
        F#m
And the experts
E         D
say I知 delirious


(Repeat Chorus 1)


Bridge:
Bm                    A
Arrogant boy love yourself
so no one has to
        E
They池e better off without you
They池e better off without you
Bm                   A
Arrogant boy cause a scene
like you池e supposed to
        F#m
They値l fall asleep without you
       D                      A(hold)
You池e lucky if your memory remains


(Repeat Chorus 1)


Chorus 2:
        A             E             F#m
Give me therapy I知 a walking travesty
         D
But I知 smiling at everything
A                 E                 F#m
Therapy, you were never a friend to me
        D
You can choke on your misery


Outro: A--D--F#m-E-D(hold)
Tap to rate this tab
# A B C D E F G H I J K L M N O P Q R S T U V W X Y Z