Song name
# A B C D E F G H I J K L M N O P Q R S T U V W X Y Z

All - Carnage tab

ALL - Carnage

written by Bill Stevenson
appeared on "Allroy's Revenge" in 1989


Spur 1
                                                    
E||-----------------------|------------------------|
B||-----------------------|------------------------|
G||----------4-----5------|--------5--------4------|
D||------2------2---------|-----3--------5---------|
A||--0--------------------|--5--------3------------|
E||-----------------------|------------------------|


                                                             
-----------------------------|------------------------------|
-----------------------------|------------------------------|
---------9--12--10-----11----|----------12----------11------|
-----11-------------9--------|------10----------12----------|
--0--------------------------|--12----------10--------------|
-----------------------------|------------------------------|

the whole song will follow soon.
Bill was here in Germany with Only Crime and he stayed at my house after the show and
showed me some difficult songs (Explorador, She's my Ex,...) on guitar! He rocks!

Thomas Crede, 2005

allroy4prez@gmail.com

feel free to contact me!

ALL? No, ALL!
Tap to rate this tab
 
# A B C D E F G H I J K L M N O P Q R S T U V W X Y Z