Song name
# A B C D E F G H I J K L M N O P Q R S T U V W X Y Z

All - Fool tab

Help us improve GuitareTab! Take a short survey!
                                    ALL - Fool

                         appeared on Allroy's Revenge in 1989                                


                                                                             ALL
made by Percolater
Thomas Crede, 2006

allroy4prez@gmail.com


this song is damn hard to tab - but this sounds right:



      PM PM  PM  PM  PM  PM  PM  PM     PM  PM  PM  PM  PM  PM PM  PM  
      E  E   E   E   E   E   E   E      E   E   E   E   E   E  E   E   
E||---------------------------------|---------------------------------|
B||---------------------------------|---------------------------------|
G||---------12----------------------|--------------------------9------|
D||------9------12----------12------|----------14----------10-----10--|
A||--10-----------------10------10--|------14------14--10-------------|
E||-----------------10--------------|--12-----------------------------|


   PM PM  PM  PM  PM  PM  PM  PM     PM  PM  PM  PM  PM  PM PM  PM  
   E  E   E   E   E   E   E   E      E   E   E   E   E   E  E   E   
---------------------------------|---------------------------------|
---------------------------------|---------------------------------|
---------12----------------------|--------------------------9------|
------9------12----------12------|----------14----------10-----10--|
--10-----------------10------10--|------14------14--10-------------|
-----------------10--------------|--12-----------------------------|


  E  E   Q    E  E   Q       E  E   Q     Q     Q     
--------------------------|--------------------------|
--------------------------|--------------------------|
--x--x--12----x--x--12----|--x--x--12----12----12----|
--x--x--12----x--x--12----|--x--x--12----12----12----|
--x--x--10----x--x--10----|--x--x--10----10----10----|
--------------------------|--------------------------|


  E  E   Q    E  E   Q       E  E   Q     H           E  E  E  E  E  E  E  E   
--------------------------|------------------------|--------------------------|
--------------------------|------------------------|--------------------------|
--x--x--12----x--x--12----|--x--x--12----14--------|--5--5--5--5--5--5--5--5--|
--x--x--12----x--x--12----|--x--x--12----14--------|--5--5--5--5--5--5--5--5--|
--x--x--10----x--x--10----|--x--x--10----12--------|--3--3--3--3--3--3--3--3--|
--------------------------|------------------------|--------------------------|


  Q    Q    Q    Q       E  E  E  E  E  E  E  E     E  E  E  E  E  E  E  E   
----------------------|--------------------------|--------------------------|
----------------------|--------------------------|--------------------------|
--9----7----5----4----|--------4--4--2--2--4--4--|--------4--4--2--2--4--4--|
--9----7----5----4----|--5--5--------------------|--5--5--------------------|
--7----5----3----2----|--------------------------|--------------------------|
----------------------|--------------------------|--------------------------|


  E  E   Q    E  E   Q       E  E   Q     Q     Q     
--------------------------|--------------------------|
--------------------------|--------------------------|
--x--x--12----x--x--12----|--x--x--12----12----12----|
--x--x--12----x--x--12----|--x--x--12----12----12----|
--x--x--10----x--x--10----|--x--x--10----10----10----|
--------------------------|--------------------------|


  E  E   Q    E  E   Q       E  E   Q     H           E  E  E  E  E  E  E  E   
--------------------------|------------------------|--------------------------|
--------------------------|------------------------|--------------------------|
--x--x--12----x--x--12----|--x--x--12----14--------|--5--5--5--5--5--5--5--5--|
--x--x--12----x--x--12----|--x--x--12----14--------|--5--5--5--5--5--5--5--5--|
--x--x--10----x--x--10----|--x--x--10----12--------|--3--3--3--3--3--3--3--3--|
--------------------------|------------------------|--------------------------|


  Q    Q    Q    Q       E  E  E  E  E  E  E  E     E  E  E  E  H         
----------------------|--------------------------|-----------------------|
----------------------|--------------------------|-----------------------|
--9----7----5----4----|--------4--4--2--2--4--4--|--------4--4--4--------|
--9----7----5----4----|--5--5--------------------|--5--5--------4--------|
--7----5----3----2----|--------------------------|--------------2--------|
----------------------|--------------------------|-----------------------|


  Q    E  Q.     Q       Q    E  Q.     Q       E  E  E  E  E  E  E  E   
----------------------|----------------------|--------------------------|
----------------------|----------------------|--------------------------|
----------------------|--4----x--4------4----|--5--5--5--5--5--5--5--5--|
--2----x--2------2----|--4----x--4------4----|--5--5--5--5--5--5--5--5--|
--2----x--2------2----|--2----x--2------2----|--3--3--3--3--3--3--3--3--|
--0----x--0------0----|----------------------|--------------------------|


  E  E  E  E  E  E  E  E     Q    E  E  E  E  E  E     Q    E  E  E  E  E  E   
--------------------------|-------------------------|-------------------------|
--------------------------|-------------------------|-------------------------|
--5--5--5--5--5--5--5--5--|--2----2--2--2--2--4--4--|--4----4--4--4--4--5--5--|
--5--5--5--5--5--5--5--5--|--2----2--2--------------|--4----4--4--------------|
--3--3--3--3--3--3--3--3--|--0----0--0--------------|--2----2--2--------------|
--------------------------|-------------------------|-------------------------|


  Q    E  E  E  E  E  E     H        E  E  E  E     E  E  E  E  E  E  E  E   
-------------------------|-----------------------|--------------------------|
-------------------------|-----------------------|--------------------------|
--5----5--5--4--4--7--7--|--7--------7--7--7--7--|--7--7--7--7--7--7--7--7--|
--5----5--5--------------|--7--------------------|--7--7--7--7--7--7--7--7--|
--3----3--3--------------|--5--------------------|--5--5--5--5--5--5--5--5--|
-------------------------|-----------------------|--------------------------|


   PM PM  PM  PM  PM  PM  PM  PM     PM  PM  PM  PM  PM  PM PM  PM  
   E  E   E   E   E   E   E   E      E   E   E   E   E   E  E   E   
---------------------------------|---------------------------------|
---------------------------------|---------------------------------|
---------12----------------------|--------------------------9------|
------9------12----------12------|----------14----------10-----10--|
--10-----------------10------10--|------14------14--10-------------|
-----------------10--------------|--12-----------------------------|


   PM PM  PM  PM  PM  PM  PM  PM     PM  PM  PM  PM  PM  PM PM  PM  
   E  E   E   E   E   E   E   E      E   E   E   E   E   E  E   E   
---------------------------------|---------------------------------|
---------------------------------|---------------------------------|
---------12----------------------|--------------------------9------|
------9------12----------12------|----------14----------10-----10--|
--10-----------------10------10--|------14------14--10-------------|
-----------------10--------------|--12-----------------------------|


  E  E   Q    E  E   Q       E  E   Q     Q     Q     
--------------------------|--------------------------|
--------------------------|--------------------------|
--x--x--12----x--x--12----|--x--x--12----12----12----|
--x--x--12----x--x--12----|--x--x--12----12----12----|
--x--x--10----x--x--10----|--x--x--10----10----10----|
--------------------------|--------------------------|


  E  E   Q    E  E   Q       E  E   Q     H           E  E  E  E  E  E  E  E   
--------------------------|------------------------|--------------------------|
--------------------------|------------------------|--------------------------|
--x--x--12----x--x--12----|--x--x--12----14--------|--5--5--5--5--5--5--5--5--|
--x--x--12----x--x--12----|--x--x--12----14--------|--5--5--5--5--5--5--5--5--|
--x--x--10----x--x--10----|--x--x--10----12--------|--3--3--3--3--3--3--3--3--|
--------------------------|------------------------|--------------------------|


  Q    Q    Q    Q       E  E  E  E  E  E  E  E     E  E  E  E  E  E  E  E   
----------------------|--------------------------|--------------------------|
----------------------|--------------------------|--------------------------|
--9----7----5----4----|--------4--4--2--2--4--4--|--------4--4--2--2--4--4--|
--9----7----5----4----|--5--5--------------------|--5--5--------------------|
--7----5----3----2----|--------------------------|--------------------------|
----------------------|--------------------------|--------------------------|


  E  E   Q    E  E   Q       E  E   Q     Q     Q     
--------------------------|--------------------------|
--------------------------|--------------------------|
--x--x--12----x--x--12----|--x--x--12----12----12----|
--x--x--12----x--x--12----|--x--x--12----12----12----|
--x--x--10----x--x--10----|--x--x--10----10----10----|
--------------------------|--------------------------|


  E  E   Q    E  E   Q       E  E   Q     H           E  E  E  E  E  E  E  E   
--------------------------|------------------------|--------------------------|
--------------------------|------------------------|--------------------------|
--x--x--12----x--x--12----|--x--x--12----14--------|--5--5--5--5--5--5--5--5--|
--x--x--12----x--x--12----|--x--x--12----14--------|--5--5--5--5--5--5--5--5--|
--x--x--10----x--x--10----|--x--x--10----12--------|--3--3--3--3--3--3--3--3--|
--------------------------|------------------------|--------------------------|


  Q    Q    Q    Q       E  E  E  E  E  E  E  E     E  E  E  E  H         
----------------------|--------------------------|-----------------------|
----------------------|--------------------------|-----------------------|
--9----7----5----4----|--------4--4--2--2--4--4--|--------4--4--4--------|
--9----7----5----4----|--5--5--------------------|--5--5--------4--------|
--7----5----3----2----|--------------------------|--------------2--------|
----------------------|--------------------------|-----------------------|


  Q    E  Q.     Q       Q    E  Q.     Q       E  E  E  E  E  E  E  E   
----------------------|----------------------|--------------------------|
----------------------|----------------------|--------------------------|
----------------------|--4----x--4------4----|--5--5--5--5--5--5--5--5--|
--2----x--2------2----|--4----x--4------4----|--5--5--5--5--5--5--5--5--|
--2----x--2------2----|--2----x--2------2----|--3--3--3--3--3--3--3--3--|
--0----x--0------0----|----------------------|--------------------------|


  E  E  E  E  E  E  E  E     Q    E  E  E  E  E  E     Q    E  E  E  E  E  E   
--------------------------|-------------------------|-------------------------|
--------------------------|-------------------------|-------------------------|
--5--5--5--5--5--5--5--5--|--2----2--2--2--2--4--4--|--4----4--4--4--4--5--5--|
--5--5--5--5--5--5--5--5--|--2----2--2--------------|--4----4--4--------------|
--3--3--3--3--3--3--3--3--|--0----0--0--------------|--2----2--2--------------|
--------------------------|-------------------------|-------------------------|


  Q    E  E  E  E  E  E     H        E  E  E  E     E  E  E  E  E  E  E  E   
-------------------------|-----------------------|--------------------------|
-------------------------|-----------------------|--------------------------|
--5----5--5--4--4--7--7--|--7--------7--7--7--7--|--7--7--7--7--7--7--7--7--|
--5----5--5--------------|--7--------------------|--7--7--7--7--7--7--7--7--|
--3----3--3--------------|--5--------------------|--5--5--5--5--5--5--5--5--|
-------------------------|-----------------------|--------------------------|


   PM PM  PM  PM  PM  PM  PM  PM     PM  PM  PM  PM  PM  PM PM  PM  
   E  E   E   E   E   E   E   E      E   E   E   E   E   E  E   E   
---------------------------------|---------------------------------|
---------------------------------|---------------------------------|
---------12----------------------|--------------------------9------|
------9------12----------12------|----------14----------10-----10--|
--10-----------------10------10--|------14------14--10-------------|
-----------------10--------------|--12-----------------------------|


   PM PM  PM  PM  PM  PM  PM  PM     PM  PM  PM  PM  PM  PM PM  PM  
   E  E   E   E   E   E   E   E      E   E   E   E   E   E  E   E   
---------------------------------|---------------------------------|
---------------------------------|---------------------------------|
---------12----------------------|--------------------------9------|
------9------12----------12------|----------14----------10-----10--|
--10-----------------10------10--|------14------14--10-------------|
-----------------10--------------|--12-----------------------------|


  E  E   Q    E  E   Q       E  E   Q     Q     Q     
--------------------------|--------------------------|
--------------------------|--------------------------|
--x--x--12----x--x--12----|--x--x--12----12----12----|
--x--x--12----x--x--12----|--x--x--12----12----12----|
--x--x--10----x--x--10----|--x--x--10----10----10----|
--------------------------|--------------------------|


  E  E   Q    E  E   Q       E  E   Q     H           E  E  E  E  E  E  E  E   
--------------------------|------------------------|--------------------------|
--------------------------|------------------------|--------------------------|
--x--x--12----x--x--12----|--x--x--12----14--------|--5--5--5--5--5--5--5--5--|
--x--x--12----x--x--12----|--x--x--12----14--------|--5--5--5--5--5--5--5--5--|
--x--x--10----x--x--10----|--x--x--10----12--------|--3--3--3--3--3--3--3--3--|
--------------------------|------------------------|--------------------------|


  Q    Q    Q    Q       E  E  E  E  E  E  E  E     E  E  E  E  E  E  E  E   
----------------------|--------------------------|--------------------------|
----------------------|--------------------------|--------------------------|
--9----7----5----4----|--------4--4--2--2--4--4--|--------4--4--2--2--4--4--|
--9----7----5----4----|--5--5--------------------|--5--5--------------------|
--7----5----3----2----|--------------------------|--------------------------|
----------------------|--------------------------|--------------------------|


  E  E   Q    E  E   Q       E  E   Q     Q     Q     
--------------------------|--------------------------|
--------------------------|--------------------------|
--x--x--12----x--x--12----|--x--x--12----12----12----|
--x--x--12----x--x--12----|--x--x--12----12----12----|
--x--x--10----x--x--10----|--x--x--10----10----10----|
--------------------------|--------------------------|


  E  E   Q    E  E   Q       E  E   Q     H           E  E  E  E  E  E  E  E   
--------------------------|------------------------|--------------------------|
--------------------------|------------------------|--------------------------|
--x--x--12----x--x--12----|--x--x--12----14--------|--5--5--5--5--5--5--5--5--|
--x--x--12----x--x--12----|--x--x--12----14--------|--5--5--5--5--5--5--5--5--|
--x--x--10----x--x--10----|--x--x--10----12--------|--3--3--3--3--3--3--3--3--|
--------------------------|------------------------|--------------------------|


  Q    Q    Q    Q       E  E  E  E  E  E  E  E     E  E  E  E  H         
----------------------|--------------------------|-----------------------|
----------------------|--------------------------|-----------------------|
--9----7----5----4----|--------4--4--2--2--4--4--|--------4--4--4--------|
--9----7----5----4----|--5--5--------------------|--5--5--------4--------|
--7----5----3----2----|--------------------------|--------------2--------|
----------------------|--------------------------|-----------------------|


  Q    E  Q.     Q       Q    E  Q.     Q       E  E  E  E  E  E  E  E   
----------------------|----------------------|--------------------------|
----------------------|----------------------|--------------------------|
----------------------|--4----x--4------4----|--5--5--5--5--5--5--5--5--|
--2----x--2------2----|--4----x--4------4----|--5--5--5--5--5--5--5--5--|
--2----x--2------2----|--2----x--2------2----|--3--3--3--3--3--3--3--3--|
--0----x--0------0----|----------------------|--------------------------|


  E  E  E  E  E  E  E  E     Q    E  E  E  E  E  E     Q    E  E  E  E  E  E   
--------------------------|-------------------------|-------------------------|
--------------------------|-------------------------|-------------------------|
--5--5--5--5--5--5--5--5--|--2----2--2--2--2--4--4--|--4----4--4--4--4--5--5--|
--5--5--5--5--5--5--5--5--|--2----2--2--------------|--4----4--4--------------|
--3--3--3--3--3--3--3--3--|--0----0--0--------------|--2----2--2--------------|
--------------------------|-------------------------|-------------------------|


  Q    E  E  E  E  E  E     H        E  E  E  E     E  E  E  E  E  E  E  E   
-------------------------|-----------------------|--------------------------|
-------------------------|-----------------------|--------------------------|
--5----5--5--4--4--7--7--|--7--------7--7--7--7--|--7--7--7--7--7--7--7--7--|
--5----5--5--------------|--7--------------------|--7--7--7--7--7--7--7--7--|
--3----3--3--------------|--5--------------------|--5--5--5--5--5--5--5--5--|
-------------------------|-----------------------|--------------------------|


   PM PM  PM  PM  PM  PM  PM  PM     PM  PM  PM  PM  PM  PM PM  PM  
   E  E   E   E   E   E   E   E      E   E   E   E   E   E  E   E   
---------------------------------|---------------------------------|
---------------------------------|---------------------------------|
---------12----------------------|--------------------------9------|
------9------12----------12------|----------14----------10-----10--|
--10-----------------10------10--|------14------14--10-------------|
-----------------10--------------|--12-----------------------------|


   PM PM  PM  PM  PM  PM  PM  PM     PM  PM  PM  PM  PM  PM PM  PM  
   E  E   E   E   E   E   E   E      E   E   E   E   E   E  E   E   
---------------------------------|---------------------------------|
---------------------------------|---------------------------------|
---------12----------------------|--------------------------9------|
------9------12----------12------|----------14----------10-----10--|
--10-----------------10------10--|------14------14--10-------------|
-----------------10--------------|--12-----------------------------|


  E  E   Q    E  E   Q       E  E   Q     Q     Q     
--------------------------|--------------------------|
--------------------------|--------------------------|
--x--x--12----x--x--12----|--x--x--12----12----12----|
--x--x--12----x--x--12----|--x--x--12----12----12----|
--x--x--10----x--x--10----|--x--x--10----10----10----|
--------------------------|--------------------------|


  E  E   Q    E  E   Q       E  E   Q     H           E  E  E  E  E  E  E  E   
--------------------------|------------------------|--------------------------|
--------------------------|------------------------|--------------------------|
--x--x--12----x--x--12----|--x--x--12----14--------|--5--5--5--5--5--5--5--5--|
--x--x--12----x--x--12----|--x--x--12----14--------|--5--5--5--5--5--5--5--5--|
--x--x--10----x--x--10----|--x--x--10----12--------|--3--3--3--3--3--3--3--3--|
--------------------------|------------------------|--------------------------|


  Q    Q    Q    Q       E  E  E  E  E  E  E  E     E  E  E  E  E  E  E  E   
----------------------|--------------------------|--------------------------|
----------------------|--------------------------|--------------------------|
--9----7----5----4----|--------4--4--2--2--4--4--|--------4--4--2--2--4--4--|
--9----7----5----4----|--5--5--------------------|--5--5--------------------|
--7----5----3----2----|--------------------------|--------------------------|
----------------------|--------------------------|--------------------------|


  E  E   Q    E  E   Q       E  E   Q     Q     Q     
--------------------------|--------------------------|
--------------------------|--------------------------|
--x--x--12----x--x--12----|--x--x--12----12----12----|
--x--x--12----x--x--12----|--x--x--12----12----12----|
--x--x--10----x--x--10----|--x--x--10----10----10----|
--------------------------|--------------------------|


  E  E   Q    E  E   Q       E  E   Q     H           E  E  E  E  E  E  E  E   
--------------------------|------------------------|--------------------------|
--------------------------|------------------------|--------------------------|
--x--x--12----x--x--12----|--x--x--12----14--------|--5--5--5--5--5--5--5--5--|
--x--x--12----x--x--12----|--x--x--12----14--------|--5--5--5--5--5--5--5--5--|
--x--x--10----x--x--10----|--x--x--10----12--------|--3--3--3--3--3--3--3--3--|
--------------------------|------------------------|--------------------------|


  Q    Q    Q    Q       E  E  E  E  E  E  E  E     E  E  E  E  E.  E.  E   
----------------------|--------------------------|-------------------------|
----------------------|--------------------------|-------------------------|
--9----7----5----4----|--------4--4--2--2--4--4--|--------4--4--2---2---2--|
--9----7----5----4----|--5--5--------------------|--5--5--------2---2---2--|
--7----5----3----2----|--------------------------|--------------0---0---0--|
----------------------|--------------------------|-------------------------|


  E  E  E  E  E  E  E  E     E  E  E  E  E.  E.  E     E  E  E  E  E  E  E  E   
--------------------------|-------------------------|--------------------------|
--------------------------|-------------------------|--------------------------|
--------4--4--2--2--4--4--|--------4--4--2---2---2--|--------4--4--2--2--4--4--|
--5--5--------------------|--5--5--------2---2---2--|--5--5--------------------|
--------------------------|--------------0---0---0--|--------------------------|
--------------------------|-------------------------|--------------------------|


  E  E  E  E  E  E   E   E      W                  
----------------------------|--------------------||
----------------------------|--------------------||
--5--5--7--7--9--9--11--11--|--12----------------||
----------------------------|--12----------------||
----------------------------|--10----------------||
----------------------------|--------------------||




Duration Legend
---------------
W - whole
H - half
Q - quarter
E - 8th
S - 16th
T - 32nd
X - 64th
. - note dotted
|-n-|  - n-tuplets


Tablature Legend
----------------
L - tied note
x - dead note
g - grace note
(n) - ghost note
> - accentuded note
NH - natural harmonic
AH - artificial harmonic
TH - tapped harmonic
SH - semi harmonic
PH - pitch harmonic
h - hammer on
p - pull off
b - bend
br - bendRelease
pb - preBend
pbr - preBendRelease
brb - bendReleaseBend
\n/ - tremolo bar dip
\n - tremolo bar dive
-/n - tremolo bar Release up
/n\ - tremolo bar inverted dip
/n - tremolo bar return
-\n - tremolo bar Release down
S - shift slide
s - legato slide
/ -  slide into from below or out of upwards
\ -  slide into from above or out of downwards
~ - vibrato
W - wide vibrato
tr - trill
TP - tremolo picking
T - tapping
S - slap
P - pop
< - fade in
^ - brush up
v - brush down
Related for Fool tab