Guitaretab - guitar tabs
Song name
# A B C D E F G H I J K L M N O P Q R S T U V W X Y Z

Ambassadors - Forever chords

Highlighted       Show chord diagrams
Forever Chords by Ambassadors

Tabbed By: Danilo Santos

I have here is all normal chords, and pretty much in higher note but you will enjoy 
this song because of the acoustic sound so I hope you enjoy!!
My chords are pretty accurate but in different note, but it is good I guess please if 
have some comment and suggestion email me at rrdie_000@yahoo.com.ph thanks guys!!
There are tabs in some verse that is pretty much translation of the lyrics of the song 
is cool while you play it with two guitars .

INTRO: C - G - Am - F

VERSE I

       C
I may burn out like a candle
     G
And I may pass away
     Am
I may focus like a shooting star
F
My heart will stay
          C
I'll be yours until forever
   G
Forever I'll be true
    Am
Oh. the promise I have made
     F
From the day that I found you
   Am7                E7
Forever your in my heart
e|-3-3--------------------|
B|-----5-3-1-1-3----------|
G|------------------------|
D|------------------------|
A|------------------------|
E|------------------------|
 Em               C
Even if we're apart
e|-3-3-3---7-5------------|
B|-------8----------------|
G|------------------------|
D|------------------------|
A|------------------------|
E|------------------------|
[ Tab from: http://www.guitaretab.com/a/ambassadors/188256.html ]
CHORUS:
            F
I'll say forever
     C
I'll be yours
   G             D
Forever I love you (2x)
e|-------b10-------b10--------10-9-7----7-|
B|-8-7-8---------7-------------------10---|
G|-----------b12-------b12-11-------------|
D|----------------------------------------|
A|----------------------------------------|
E|----------------------------------------|

Verse II

   A7	            E7
My love will never fade away
Em          E7
Even if I die
    Am7	                  E7
Now I love you until the end of time
 Em                   E7
Even without your smile
            F		C
So help me please.. I beg you
    	G           E
Donít walk away I need you
     F	   	          C
To stay with me and be by my side

     G                          D
Take my hand and will walk it out

         F
Until forever
     C
I'll be yours
   G             D
Forever I love you
            F
I'll say forever
     C
I'll be yours
   G               D
Forever I'll be true

  A7   	             E7
My love will never fade away
Em         E7
Even if I die
 Am7	                  E7
Now I love you until the end of time
Em                   E7
Even without your smile
             F	      C	            F
So help me please I beg you... to stay
Related for Forever chords