Song name
# A B C D E F G H I J K L M N O P Q R S T U V W X Y Z

Amebix - Monolith tab

Hey its Bren (writer of bunch of novembers doom tabs).
IM NOT EXACHLY ACCURTATE TO THE ALBUM BUT IM SURE ITS CLOSE. Also Consiter
WARLORD UKs cover of nobodys driving as well as their
cover of chain reaction.remember, NO GODS NO MASTERS

Tuning-E-A-D-G-B-E

-----------------0-----------------------------|
-----------------------------------------------|KEYBOARDS ARE
-------0-------0-------------------------------|JUST E ON A CHOIR EFFECT
-----9-------9---------------------------------|
---7-------7-----------------------------------|
-0-------0-------------------------------------|

-------------------0-----------------------------------|
---0-----0-----0-----0---------------------------------|
-----4-----4-----4-----4-------------------------------|
-------------------------------------------------------|
-2-----2-----2-----------------------------------------|
-------------------------------------------------------|

--------------------0-----------------------|
---0------0-----0-----0---------------------|
-----6------6-----6-----6-------------------|
--------------------------------------------|
-4------4-----4-----------------------------|
--------------------------------------------|

-------------------0----------------------------|
---0-----0-----0-----0--------------------------|
-----7-----7-----7-----7------------------------|
------------------------------------------------|
-5-----5-----5----------------------------------|
------------------------------------------------|


------------0------------------------------------|
-------0-----------------------------------------|
-----9-------------------------------------------|
---7---------------------------------------------|
-0-----------------------------------------------|
-------------------------------------------------|

-----------------------0-------------------------|
----------0--------------------------------------|
-------0-----------0-----------------------------|
-----9-----------9-------------------------------|
---7-----------7---------------------------------|
-0-----------0-----------------------------------|


----------------------------------------------------|   slide up an down here
----------------------------------------------------|   between each power
----------------------------------------------------|   chord like what stig
-2-------2-------2------2-------2-------------------|  does
-2-------2-------2------2-------2-------------------|
-0-------0-------0------0-------0-------------------|

----------------|
----------------|NOW ON KEYS ARE
-2--4-----------|A B  F# G E
-2--4-4-5-2-----|
-0--2-4-5-2-----|
------2-3-0-----|


-------------------------------------|
-------------------------------------|
-----------------------------7-------|
--------------------2-2-2-2--7-------|
--------------------2-2-2-2--5-------|
-0-0-0-0-0-0-0-0-0--0-0-0-0----------|

=====================NOBODYS DRIVING=========================================

riff 1
|---------------------------------|
|---------------------------------|
|--9-----9-----9-9-9-----9-9-9-7--|
|--9-----9-----9-9-9-----9-9-9-7--|
|--7-----7-----7-7-7-----7-7-7-5--|
|----000---000-------000----------|
     ...   ...       ...

riff 2
|----------------------------------------------------------------------|
|----------------------------------------------------------------------|
|----------------------------------------------------------------------|
|--5-----5-----5--5--5-----5---7--7---5-----5-----5--5--5-----5---4--4-|
|--5-----5-----5--5--5-----5---7--7---5-----5-----5--5--5-----5---4--4-|
|--3-333-3-333-3--3--3-333-3---5--5---3-333-3-333-3--3--3-333-3---2--2-|
     ...   ...         ...              ...   ...         ...

riff 3
|--------------------------------|
|--------------------------------|
|--------------------------------|
|--4--4--4--7--7--4--4--4--9--9--|
|--4--4--4--7--7--4--4--4--9--9--|
|--2--2--2--5--5--2--2--2--7--7--|
   .  .           .  .

riff 4
|------------------------------------------------------|
|------------------------------------------------------|
|-2--2--2--2-2--5--5-5-5--5-5-7-7-7-7-7-7-7-7-7-7-7-7--|
|-2--2--2--2-2--5--5-5-5--5-5-7-7-7-7-7-7-7-7-7-7-7-7--|
|-0--0--0--0-0--3--3-3-3--3-3-5-5-5-5-5-5-5-5-5-5-5-5--|
|------------------------------------------------------|

There are a few parts throughout the song
were Stig just makes noise with his guitar
for those parts muffle your strings and just
slide across all of them with your pick or something

===========THE=========POWER===========REMAINS===============================

----------------------------------|
----------------------------------|
----------------------------------|
-6-0-0-0-3-2-1-0------------------|

RYTHM
-------------------------------------------|
-------------------------------------------|
-------------------------------------------|
-----2---------2---------------------------|
-----2---------2---------------------------|
-0-0-0-0-0-0-0-0---------------------------|


LEAD
-------------------------------------------------|
-------------------------------------------------|
------------------------------10-12--------------|
-12-13-12-13-12-10-------10-12-------------------|
-------------------10-12-------------------------|
-------------------------------------------------|
SLIDE UP N DOWN FOR THE REST OF THE RIFF

--------------------------------------|I
--------------------------------------|I
-9-9---------10-10-10-10-10-10-10-10--|I
-9-9---------10-10-10-10-10-10-10-10--|I
-7-7---------8--8--8--8--8--8--8--8---|I
-----0-0-0-0--------------------------|I
     . . . . .  .  .  .  .  .  .  .

-----------------------------------------|
-----------------------------------------|
-----------------------------------------|
-5-5------------------4------------------|
-5-5------------------4------------------|
-3-3-3-3-3-3-3-3-3-3--2-2-2-2-2-2-2-2-2--|
 . . . . . . . . . .  . . . . . . . . .


---------------------------------------|I
---------------------------------------|I
--------------10-10-10-10-10-10-10-10--|I
-2-2----------10-10-10-10-10-10-10-10--|I
-2-2----------8--8--8--8--8--8--8--8---|I
-0-0---0-0-0-0-------------------------|I
     . . . . .  .  .  .  .  .  .  .


--------------------------------------------------|
--------------------------------------------------|
-7-9-10-------------------9-10-11-----------------|
-7-9-10-------------------9-10-11-----------------|
-5-7-8-8-8-8-8-8-8-8-8-8--7-8--9-9-9-9-9-9-9-9-9--|
--------------------------------------------------|
       . . . . . . . . .         . . . . . . . .

---------------------------------------------------------------|
---------------------------------------------------------------|
-14-14-14-14-14-14-14-14---------------------------------------|
-14-14-14-14-14-14-14-14---------------------------------------|
-12-12-12-12-12-12-12-12---------------------------------------|
---------------------------------------------------------------|


SLIDE UP N DOWN  FOR THIS PART
WITH THIS RYTHM

-------------------------|
-------------------------|
-------------------------|
-2-----------------------|
-2-----------------------|
-0-0-0-0-0-0-0-0-0-0-----|
 . . . . . . . . . .
--------------------------------------|I
--------------------------------------|I
-9-9---------10-10-10-10-10-10-10-10--|I
-9-9---------10-10-10-10-10-10-10-10--|I
-7-7---------8--8--8--8--8--8--8--8---|I
-----0-0-0-0--------------------------|I
     . . . . .  .  .  .  .  .  .  .

-----------------------------------------|
-----------------------------------------|
-----------------------------------------|
-5-5------------------4------------------|
-5-5------------------4------------------|
-3-3-3-3-3-3-3-3-3-3--2-2-2-2-2-2-2-2-2--|
 . . . . . . . . . .  . . . . . . . . .


--------------------------------------------------|
--------------------------------------------------|
-7-9-10-------------------9-10-11-----------------|
-7-9-10-------------------9-10-11-----------------|
-5-7-8-8-8-8-8-8-8-8-8-8--7-8--9-9-9-9-9-9-9-9-9--|
--------------------------------------------------|
       . . . . . . . . .         . . . . . . . .


---------------------------------------------------------------|
---------------------------------------------------------------|
-14-14-14-14-14-14-14-14---------------------------------------|
-14-14-14-14-14-14-14-14---------------------------------------|
-12-12-12-12-12-12-12-12---------------------------------------|
---------------------------------------------------------------|


----------------------------------------------|
----------------------------------------------|
----------------------------------------------|
-9-----8-----7------8-9-----------------------|
-9-----8-----7------8-9-----------------------|
-7-0-0-6-0-0-5-0-0--6-7-----------------------|

JUST LIKE ALWAYS SLIDE UP N DOWN FOR THE SOLO.


--------------------------------------|I
--------------------------------------|I
-9-9---------10-10-10-10-10-10-10-10--|I
-9-9---------10-10-10-10-10-10-10-10--|I
-7-7---------8--8--8--8--8--8--8--8---|I
-----0-0-0-0--------------------------|I
     . . . . .  .  .  .  .  .  .  .

-----------------------------------------|
-----------------------------------------|
-----------------------------------------|
-5-5------------------4------------------|
-5-5------------------4------------------|
-3-3-3-3-3-3-3-3-3-3--2-2-2-2-2-2-2-2-2--|
 . . . . . . . . . .  . . . . . . . . .

--------------------------------------------------|
--------------------------------------------------|
-7-9-10-------------------9-10-11-----------------|
-7-9-10-------------------9-10-11-----------------|
-5-7-8-8-8-8-8-8-8-8-8-8--7-8--9-9-9-9-9-9-9-9-9--|
--------------------------------------------------|
       . . . . . . . . .         . . . . . . . .


---------------------------------------------------------------|
---------------------------------------------------------------|
-14-14-14-14-14-14-14-14---------------------------------------|
-14-14-14-14-14-14-14-14---------------------------------------|
-12-12-12-12-12-12-12-12---------------------------------------|
---------------------------------------------------------------|


=================================TIME=BOMB===================================

-----------------|
-----------------|
-----------------|
-0-0-0-0-0-0-0-0-|


-------------------------------|
-------------------------------|
-------------------------------|
-3-3---------------------------|
-3-3---------------------------|
-1-1-1-1-1-1-1-1-1-1-1-1-------|
     . . . . . . . . . .
-----------------------------|
-----------------------------|
-----------------------------|
-6-6-------------------------|
-6-6-------------------------|
-4-4-4-4-4-4-4-4-4-4-4-4-4-4-|
     . . . . . . . . . . . .


------------------------------|
------------------------------|
------------------------------|
-5-5--------------------------|
-5-5--------------------------|
-3-3-3-3-3-3-3-3-3-3-3-3-3-3--|
     . . . . . . . . . . . .

---------------------------------------------|
---------------------------------------------|
--9-9---------12--11-9-9---------------------|
--9-9---------12--11-9-9---------------------|
--7-7---------10--9--7-7---------------------|
------0-0-0-0------------1-1-1-1-1-1-1-1-----|
      . . . .            . . . . . . . .


---------------------------------------------|
---------------------------------------------|
--9-9---------12--11-9-9---------------------|
--9-9---------12--11-9-9---------------------|
--7-7---------10--9--7-7---------------------|
------0-0-0-0------------5-5-5-5-5-5-5-5-5-5-|
      . . . .            . . . . . . . .

--------------------------|
--------------------------|
-0-0-7-0-0-7-8-7-0--------|
--------------------------|

-----------------------------------|
-----------------------------------|
--------10-9-----------4-5-4-------|
--------10-9-----------4-5-4-------|
0-0-0-0-8--7---0-0-0-0-2-3-2-------|
-----------------------------------|
. . . .        . . . .

-------------------------------|
-------------------------------|
-------------------------------|
-3-3---------------------------|
-3-3---------------------------|
-1-1-1-1-1-1-1-1-1-1-1-1-------|
     . . . . . . . . . .
-----------------------------|
-----------------------------|
-----------------------------|
-6-6-------------------------|
-6-6-------------------------|
-4-4-4-4-4-4-4-4-4-4-4-4-4-4-|
     . . . . . . . . . . . .


------------------------------|
------------------------------|
------------------------------|
-5-5--------------------------|
-5-5--------------------------|
-3-3-3-3-3-3-3-3-3-3-3-3-3-3--|
     . . . . . . . . . . . .

---------------------------------------------|
---------------------------------------------|
--9-9---------12--11-9-9---------------------|
--9-9---------12--11-9-9---------------------|
--7-7---------10--9--7-7---------------------|
------0-0-0-0------------1-1-1-1-1-1-1-1-----|
      . . . .            . . . . . . . .
---------------------------------------------|
---------------------------------------------|
--9-9---------12--11-9-9---------------------|
--9-9---------12--11-9-9---------------------|
--7-7---------10--9--7-7---------------------|
------0-0-0-0------------5-5-5-5-5-5-5-5-5-5-|


--------------------------------------------------------------------|
--------------------------------------------------------------------|
--------------------------------------------------------------------|
-------------12----12-14-14B16-14B16-14B16---12-14-12-14-12-14-12---|
-------12-14----14--------------------------------------------------|
-12-14--------------------------------------------------------------|

-------------------------------------------------|
-------------------------------------------------|
-------------------------------------------------|
-12-14-12-12-12--12-12-----------------12-14-----|
-----------------------14-14-14--12-14-----------|
-------------------------------------------------|


-------------------------------------------|
-------------------------------------------|
----9---9---9--7--9------------------------|
----9---9---9--7--9------------------------|
----7---7---7--5--7------------------------|
-00--00--00--00--0-------------------------|


==================LAST===WILL===AND==TESTAMENT===============================


------------------------------------)
------------------------------------)HERE KEYS ARE
------------------------------------)E B E B
-----2----------------4-2-----------)
---2--------------------------------)
-0-----------------0----------------)


--------------------------|
--------------------------|
--------------------------|
---4-2---0--2-------7---6-|
--------------------------|
-0-----0---0--0-------0---|


-----------------------------|
-----------------------------|
-----------------------------|
-2---------------------------|
-2---------------------------|
-0-0-0-0-0-0-0-0-0-----------|

-------------------------------------|
-------------------------------------|
9--9-9---9-9-9-7-7-------------------|
9--9-9---9-9-9-7-7-------------------|
7--7-7---7-7-7-5-5-------------------|
-0-----0-----------0-----------------|

SLIDE UP N DOWN

----------------------------------|
----------------------------------|
--------9----9-9-9-7--------------|
--------9----9-9-9-7--------------|
--------7----7-7-7-5--------------|
-0-0-0-0--0-0---------------------|

----------------------------|
----------------------------|
-12-11-9--------------------|
-12-11-9--------------------|
-10-9--7--------------------|
----------------------------|


SLIDE UP N DOWN AS USUAL.


----------------------------------|
----------------------------------|
--------9----9-9-9-7--------------|
--------9----9-9-9-7--------------|
--------7----7-7-7-5--------------|
-0-0-0-0--0-0---------------------|

----------------------------|
----------------------------|
-12-11-9--------------------|
-12-11-9--------------------|
-10-9--7--------------------|
----------------------------|

------------------------------------|
------------------------------------|
-------0------------0---------------|
-----4---4--------7---7-------------|
---2-------2----5-------5-----------|
-5------------0---------------------|

-------------------0---|
-----------------1-----|
-------0-------0-------|
-----4---4---2---------|
---2-------2-----------|
-5---------------------|


----------------------------------|
----------------------------------|
--------9----9-9-9-7--------------|
--------9----9-9-9-7--------------|
--------7----7-7-7-5--------------|
-0-0-0-0--0-0---------------------|


----------------------------|
----------------------------|
-12-11-9--------------------|
-12-11-9--------------------|
-10-9--7--------------------|
----------------------------|


---------------------------|
---------------------------|
---------------------------|
---------------------------|
---------------------------|
-3-2-2-2-2-0-0-2-3-2-3-2---|


-------------------------------------|
-------------------------------------|
-------------------------------------|
-------------------------------------|
-------------------------------------|
-0-2-3-2-3-5-3-2-3-2-0---------------|


===========================ICMB==============================================


WEIRD KEYBOARD EFFECTS


------------------------------------|
------------------------------------|
-----9-----9-----9---9--------------|
-----9-----9-----9---9--------------|
-----7-----7-----7---7--------------|
-0-0---0-0---0-0---0----------------|

------------------------------------|
------------------------------------|
----9----9----9-12---9--------------|
----9----9----9-12---9--------------|
----7----7----7-10---7--------------|
-0-0--0-0--0-0-----0----------------|

---------------------------------------------|
---------------------------------------------|
---------------------------------------------|
-----------------5---5---2-------------------|
-----------------5---5---2-------------------|
-0-0-0-0-0-0-0-0-3-3-3-0-0-------------------|

--------------------------------------------|
--------------------------------------------|
-9-9-9-9-9-9-16-17-17--16-------------------|
-9-9-9-9-9-9-16-17-17--16-------------------|
-7-7-7-7-7-7-14-15-15--14-------------------|
--------------------------------------------|

--------------------------------------------|
--------------------------------------------|
-9-9-9-9-9-9--12-12-12--11------------------|
-9-9-9-9-9-9--12-12-12--11------------------|
-7-7-7-7-7-7--10-10-10--9-------------------|
--------------------------------------------|


---------------------------------------------|
---------------------------------------------|
---------------------------------------------|
-----------------5---5---2-------------------|
-----------------5---5---2-------------------|
-0-0-0-0-0-0-0-0-3-3-3-0-0-------------------|

--------------------------------------------|
--------------------------------------------|
-9-9-9-9-9-9-16-17-17--16-------------------|
-9-9-9-9-9-9-16-17-17--16-------------------|
-7-7-7-7-7-7-14-15-15--14-------------------|
--------------------------------------------|

--------------------------------------------|
--------------------------------------------|
-9-9-9-9-9-9--12-12-12--11------------------|
-9-9-9-9-9-9--12-12-12--11------------------|
-7-7-7-7-7-7--10-10-10--9-------------------|
--------------------------------------------|


-------------------------------------------------------------|
-------------------------------------------------------------|
-2---2---2-2--4---4---4-4--5---5---5---5---7---7---7---7-7---|
-2---2---2-2--4---4---4-4--5---5---5---5---7---7---7---7-7---|
-0-0-0-0-0-0--2-2-2-2-2-2--3-3-3-3-3-3-3---5-5-5-5-5-5-5-5---|
-------------------------------------------------------------|

---------------------------------------------|
---------------------------------------------|
---------------------------------------------|
-----------------5---5---2-------------------|
-----------------5---5---2-------------------|
-0-0-0-0-0-0-0-0-3-3-3-0-0-------------------|


-------------------------------------------------------------|
-------------------------------------------------------------|
-2---2---2-2--4---4---4-4--5---5---5---5---7---7---7---7-7---|
-2---2---2-2--4---4---4-4--5---5---5---5---7---7---7---7-7---|
-0-0-0-0-0-0--2-2-2-2-2-2--3-3-3-3-3-3-3---5-5-5-5-5-5-5-5---|
-------------------------------------------------------------|


---------------------------------------------|
---------------------------------------------|
---------------------------------------------|
---------------------------------------------|
-3-5-7-5-7-8-10-12-10-8-7--------------------|
---------------------------------------------|


-----------------------------------------------------|
-----------------------------------------------------|
-----------0-2-0-2-4-5-4-2-0-------------------------|
-0-2-3-2-3-------------------3-2-0-2-3-2-3-2-3-------|
-----------------------------------------------------|
-----------------------------------------------------|


----------------------------------------------------|
----------------------------------------------------|
-0-2-5-2-5-7B8---7-5----7B8-7B8-7B8--7-5------------|
---------------------8-------------------8-7-3-2-0--|
----------------------------------------------------|
----------------------------------------------------|

-------------------------------|
-------------------------------|
-------------------------------|
-2-2-2-2-2---------------------|
-2-2-2-2-2---------------------|
-0-0-0-0-0---------------------|

======================CHAIN==========REACTION================================

-----------------------|
-----------------------|
-----------------------|
-5-5----0-5-5----------|

------------------------------------------|
------------------------------------------|
----------14-14-14-14-14-14---------------|
-7-7---7--14-14-14-14-14-14---------------|
-7-7---7--12-12-12-12-12-12---------------|
-5-5-0-5----------------------------------|

-------------------------------------------|
-------------------------------------------|
------------12-12-12-12-12-12--------------|
-7-7---7-7--12-12-12-12-12-12--------------|
-7-7---7-7--10-10-10-10-10-10--------------|
-5-5-0-5-5---------------------------------|

----------------------------------------|
----------------------------------------|
----------------------------------------|
---------7-------7-7-7------------------|
---------7-------7-7-7------------------|
-5-5-5-5-5-5-5-5-5-5-5------------------|

---------------------------------------------|
---------------------------------------------|
---------------------------------------------|
-----------8-5-7-------8-7-5-7---------------|
-----------8-5-7-------8-7-5-7---------------|
-5-5-5-5-5-6-3-5-5-5-5-6-5-3-5---------------|

---------------------------------------|
---------------------------------------|
---------------------------------------|
-7-7-5-5-5-5-5-5--2--5-----------------|
-7-7-5-5-5-5-5-5--2--5-----------------|
-5-5-3-3-3-3-3-3--0--3-3-3-3-3-3-3-3---|

---------------------------------------------|
---------------------------------------------|
---------------------------------------------|
-----------8-5-7-------8-7-5-7---------------|
-----------8-5-7-------8-7-5-7---------------|
-5-5-5-5-5-6-3-5-5-5-5-6-5-3-5---------------|



SOLO

----------------------------------------------------------|
----------------------------------------------------------|
----------------------------------------------------------|
-12B13--12B13--12B13-12-10-----------------10----12-------|
---------------------------12-------10--12----12----12----|
-----------------------------10-12------------------------|

--------------------------------------------------------------|
--------------------------------------------------------------|
--------------------------------------------------------------|
-14B15--14B15--14B15-14-12----------------12---14-------------|
---------------------------14-------12-14---14----14----------|
------------------------------12-14---------------------------|

-------------------------------|
-------------------------------|
-15-14-13-12-------------------|
--------------15-14-12---------|
-----------------------15-14---|
-------------------------------|

-17T-12-15--------------------|
------------------------------|
------------------------------|
------------------------------|6X
------------------------------|
------------------------------|


-18T-12-15----------------------|
--------------------------------|
--------------------------------|
--------------------------------|6X
--------------------------------|
--------------------------------|

-19T-12-15----------------|
--------------------------|
--------------------------|6X
--------------------------|
--------------------------|
--------------------------|


-18T-12-15----------------------|
--------------------------------|
--------------------------------|
--------------------------------|6X
--------------------------------|
--------------------------------|

--------------------------------------|
-19T-12-15----------------------------|
--------------------------------------|
--------------------------------------|6X
--------------------------------------|
--------------------------------------|

--------------------------------------|
-18T-12-15----------------------------|
--------------------------------------|
--------------------------------------|6X
--------------------------------------|
--------------------------------------|


-10B12-----------------------|
-----------------------------|
-----------------------------|
-----------------------------|
-----------------------------|
-----------------------------|

SOLO RYTHM
--------------------------------------------------|
--------------------------------------------------|
--------------------------------------------------|
--------------------------------------------------|
-0-0-0-0-2-2-2-2-3-3-3-3-2-2-2-2-0-0-0-0----------|
--------------------------------------------------|

--------------------------------|
--------------------------------|
--------------------------------|
-------7-7----------------------|6X
-------7-7----------------------|
-5-5-5-5-5----------------------|


==============FALLEN=========FROM============GRACE===========================

riff 1(clean) this is played soflty
-------------------------------------|
---------------------------0---------|
---------0---------------------------|
-------0------0---------0-------0----| x3
-----9----------------7--------------|
---7--------7---7---5---------5---5--|


or
-------------------------------------|
---------------------------0---------|
---------0---------------------------|
-------0------0---------0-------0----| x3
-----9----------9-----7-----------7--|
---7--------7-------5---------5------|


riff 1a
-----------------------------------------|
-----------0-----------------------------|
---------0-------0--------0--------------|
-------0--------------------------0------| x1
-----9-----------------7--------7--------|
---7----------7------5--------5------5---|


riff 1b
--------------------------------|
------------------------0-------|
---------0-----------------0----|
-------0----0-------0-----------|
-----9------------7-------------|
---7------------5---------------|


riff 1b cont.
------------------------------------------------------|
-----------0------------------------0-----------0-----|
--------------0--------0------------------------------|
-------0-------------0----0-------0----0------0----0--|
-----9-------------7------------9-----------7---------|
---7-------------5------------7-----------5-----------|


riff 2
-------------------------|
-------------------------|
-------------------------|
---9--9-9--7-------------| x3
---9--9-9--7--4-2-3-2-2--|
---7--7-7--5--2-0-1-0-0--|
              . . . . .


riff 3
-------------------------|
-------------------------|
-------------------------|
---4---------5------7--7-| x1
---4---------5------7--7-|
---2-2222222-3--333-5--5-|
     .......    ...

riff 2 x3


riff 4
-----------------------------|
-----------------------------|
-----------------------------| x1
---4---------5------7--7--7--|
---4---------5------7--7--7--|
---2-2222222-3--333-5--5--5--|
     .......    ...

riff 5 this riff is played many times
through out the song
---------------------------|
---------------------------|
---------------------------|
---------------------------|
---9999999-7\9-9-7-7777777-|
---7777777-5\7-7-5-5555555-|
                   ...

------------------------|
------------------------|
------------------------|
---4---------5--555-4---|
---4---------5--555-4---|
---2-2222222-3--333-2---|


---------------------------------------------|
---------------------------------------------|
-2-------------2--7-6------------------------|
-2-4-5-2-------2--7-6------------------------|
-0-4-5-2-------0--5-4------------------------|
---2-3-0-------------------------------------|


SLIDE UP N DOWN 4 SOLO

====================COMING=======HOME========================================


-------------3--------------3--------------3------|
-----------3------3-------3------3-------3------3-|
---0h2---2--------------2--------------0----------|
-------0-------0----0-3-------3----3-2-------2----|
--------------------------------------------------|
--------------------------------------------------|

--------------------------3---------------3------|
-----------3------------3------3--------3------3-|
---------0-----0------2---------------2----------|
---2---2-----2----2-0-------0-----0-3-------3----|
-----3-------------------------------------------|
-------------------------------------------------|

-----------3-----------------------------------3-|
---------3------3----------------------------3---|
-------0-----------------0-----0-----0h2---2-----|
---3-2-------2-----2---2-----0-----------0-------|
---------------------3-----2------3--------------|
-------------------------------------------------|

----------------3---------------3-----------------|
------3-------3------3--------2------3----------3-|
------------2---------------0-----------------0---|
---0----0-3-------3-----3-2-------2-----2---2-----|
------------------------------------------3-------|
--------------------------------------------------|


-----------------3--------------3--------------3--|
---------------3------3-------3------3-------3----|
-----0-0h2---2--------------2--------------0------|
---2-------0-------0----0-3-------3----3-2--------|
--------------------------------------------------|
--------------------------------------------------|


--------------------------------------3~~~~~----|
------3-------------------------------3~~~~~----|
------------------0--------0----------2~~~~~----|
---2-----2-----2--------0--------0----0~~~~~----|
------------3--------2--------3-----------------|
------------------------------------------------|

gain

-------------------------------------------------------|
-------------------------------------------------------|
-7----10----9----5-5-5---5---5---5---------------------|
-7----10----9----5-5-5---5---5---5---------------------|like 5x
-5----8-----7----3-3-3-0-3-0-3-0-3---------------------|
-------------------------------------------------------|


--------------------------------|
--------------------------------|
--------------------------------|
--------------------------------|
-2-2-2-2-2-2-2-2-2-2------------|
-0-0-0-0-0-0-0-0-0-0------------|

repeat intro this time with this bassline

-------------------------|
-0--3--2----0------------| on keyboard its
---------3---------------| D F E C D
-------------------------|its played during 2nd time so

-------------------------------------------------------|
-------------------------------------------------------|
-7----10----9----5-5-5---5---5---5---------------------|
-7----10----9----5-5-5---5---5---5---------------------|
-5----8-----7----3-3-3-0-3-0-3-0-3---------------------|
-------------------------------------------------------|

--------------------------------|
--------------------------------|
--------------------------------|
--------------------------------|
-2-2-2-2-2-2-2-2-2-2------------|
-0-0-0-0-0-0-0-0-0-0------------|


---------0-------------0------------------|
-------1---1---------1---1----------------|
-----2--------2----0-------0--------------|
---2--------------------------------------|
----------------0-------------------------|
------------------------------------------|


-------0------------0-----------0--------------------|
-----1---1------------0---------0--------------------|
---2-------0------1-----1-------0--------------------|
-2--------------2---------------2--------------------|
--------------2-----------------2--------------------|
--------------------------------0--------------------|


--------------------------------------|
--------------------------------------|
----------------------5-4-2---5-4-7---|
----------------------5-4-2---5-4-7---|
-2-2-2-2-2-2-2-2-2-2--3-2-0---3-2-5---|
-0-0-0-0-0-0-0-0-0-0------------------|

-------------------------------------------------------|
-------------------------------------------------------|
-7----10----9----5-5-5---5---5---5---------------------|
-7----10----9----5-5-5---5---5---5---------------------|
-5----8-----7----3-3-3-0-3-0-3-0-3---------------------|
-------------------------------------------------------|


THER YOU HAVE IT. I HOPE YOU ENJOY THIS ALBUM TAB. WHICH IS THE 1ST TAB ALBUM BY AMEBIX.


artist-amebix
album-monolith
released-1986
tabbed by BRENDAN COWAN 12 yrs old
tabbed in 2008
Tap to rate this tab
 
# A B C D E F G H I J K L M N O P Q R S T U V W X Y Z