Song name
# A B C D E F G H I J K L M N O P Q R S T U V W X Y Z

Amebix - Axeman tab

Songs pretty easy. The part after the second chorus starts on G5 and just
sorta scales up the neck to A5 on the 12th fret of the A string or something
like that. Here are the main riffs though:

Riff 1 (verse)
E|-------------|-------------|-------------|-------------|3x this row
B|-------------|-------------|-------------|-------------|
G|-------------|-------------|-------------|-------------|
D|-------------|-------------|-------------|-------------|
A|-5-5-5-5-5-5-|-5-5-5-5-5-5-|-5-5-5-5-5-5-|-5-5-5-3---4-|
E|-3-3-3-3-3-3-|-3-3-3-3-3-3-|-3-3-3-3-3-3-|-3-3-3-1---2-|
   . . . . . .   . . . . . .   . . . . . .   . . .
E|-------------|-------------|-------------|-------------||
B|-------------|-------------|-------------|-------------||
G|-------------|-------------|-------------|-------------||
D|-------------|-------------|-------------|-------------||
A|-5-5-5-5-5-5-|-5-5-5-5-5-5-|-5-5-5-5-5-5-|-5-5-5-5-5-5-||
E|-3-3-3-3-3-3-|-3-3-3-3-3-3-|-3-3-3-3-3-3-|-3-3-3-3-3-3-||
   . . . . . .   . . . . . .   . . . . . .   . . . . . .

Riff 2 (chorus)
E|-------------|-------------|-------------|-------------|3x this row
B|-------------|-------------|-------------|-------------|
G|-------------|-------------|-------------|-------------|
D|-------------|-------------|-------------|-------------|
A|-7-777-7-777-|-7-777-7-777-|-8-888-8-888-|-101010111111|
E|-5-555-5-555-|-5-555-5-555-|-6-666-6-666-|-8-888-9-999-|

E|-------------|-------------|-------------|-------------||
B|-------------|-------------|-------------|-------------||
G|-------------|-------------|-------------|-------------||
D|-------------|-------------|-------------|-------------||
A|-7-777-7-777-|-7-777-7-777-|-8-888-8-888-|-10----------||
E|-5-555-5-555-|-5-555-5-555-|-6-666-6-666-|-8-----------||

that pretty much it. play the riffs back to back.

questions/comments - fraberjam@gmail.com
Tap to rate this tab
 
# A B C D E F G H I J K L M N O P Q R S T U V W X Y Z