American Football - The Summer Ends tab

Well to be honest, I didn't tab this song, but I found it on YouTube.
Some guy had a video of this song and he posted the tab
with the video and I took it from there.
Unfortunately I can't seem to find the video on YouTube
again(if somebody find it PLEASE post it here).
I think he tried to play both guitars at the same time,
which i find pretty hard, but well since there's
no tab online (as fas as I know)
I decided to upload this (which I didn't tab)for our entertainment.

Enjoy !

When The Summer Ends - American Football
Album : American Football (1999)


E|--0-----------------------------------------4--0--------|
B|----------0-------------0------4--0--0----------0-------|
G|----------1-----------------1---------------------------|
D|--2--4------2------2------------------------------------|
A|--0--------------2--------------------------------------|
E|----------------------------------------4---------------|

Verse:

E|--0-----------------------------------------0---------|
B|----------0-------------0------4--0--0-------4--------|
G|----------1-----------------1-------------------------|
D|--2--4------2------2----------------------------------|
A|--0--------------2------------------------------------|
E|----------------------------------------4-------------|

Before bridge: Parentheses = Optional notes

E|--------------| Repeat x16-|
B|-(0)(0)(0)-----------------|
G|-(1)(1)(1)-----------------|
D|--2--4--6------------------|
A|--0--0--0------------------|
E|---------------------------|

Chords for Bridge: The first 2 chords are meant to be picked out lightly. Make sure you 
continue to play the lick above inbetween the chords you play (as best you can, the song 
is designed for 2 guitars)

C#min E Maj A2
_____________________________
E|----------------------------------------0--------|
B|----------------------------------------0--------|
G|----------1----------------1----------2----------|
D|------2----------------2--------------2----------|
A|--4------------------------------------0---------|
E|--------------------0----------------------------|

Ending:

E|---------------------------------------0--------|
B|--------------0---------------------------0-----|
G|-------------(1)------------------2-------------|
D|------2---------------------------2-------------|
A|----------2-------------------0-----------------|
E|--4---------------------------------------------|

(Very last chord is a B Major picked out, x2444(0))
Tap to rate this tab
 
# A B C D E F G H I J K L M N O P Q R S T U V W X Y Z