Song name
# A B C D E F G H I J K L M N O P Q R S T U V W X Y Z

American Football - Stay Home tab

Band: American Football
Song: Stay Home
Album: American Football

This is a very easy song but as i'm not a good guitarist i only could get one guitar,
and i know it's wrong.

Guitar 1

00:00-02:57
x4                        x3                         x4
------0--------|------0--------|------0--------|                 
------------6--|------------6--|------------6--|
---------5-----|---------5-----|---------5-----|
---3-----------|---0-----------|---------------|
---------------|---------------|----3----------|
---------------|---------------|---------------|

02:57-05:03
-----------------------------------------------|
---------5-----6-----5--------5-----6-----5----|
------5-----5-----5--------------5-----5-------|
-----------------------------------------------|
-----------------------------------------------|
---6-----------------------6-------------------|

05:03-end
------------------0-------------------3-----|
------6-----6-------6-----6-----6--------6--|
---5-----5-----5-------5-----5-----5--------|
--------------------------------------------|
--------------------------------------------|
--------------------------------------------|

If anybody like to correct the song or complete it it would be more than great.
American Football was a great band.. but there's just a few tabs online; if you
know how to play their songs, please contact me or upload the tabs..THX
Tap to rate this tab
# A B C D E F G H I J K L M N O P Q R S T U V W X Y Z