Song name
# A B C D E F G H I J K L M N O P Q R S T U V W X Y Z

Amon Amarth - Gods Of War Arise tab

Hey, this is my first tab and it is on a great song by the awesome band Amon Amarth! 
I know that Amon Amarth usually have their guitars in drop B tuning but I use drop C tuning 
this song sounds awesome in it! Any problems email me at hiz182@hotmail.com.

Gods of War Arise by Amon Amarth
tabbed by Hiran G

Tuning: C,G,C,F,A,D

Key:
h = hammer on
p = pull off
. = palm mute
()= bend note

Intro:
|-----------------------------------|
|-----------------------------------|
|-----------------------------------|
|-----------------------------------|
|-0--0h5h7-76--0--0h5h7-76----------|
|-0------------0--------------------|

  Riff 1:
|----------------------------------------------------------|
|----------------------------------------------------------|
|----------------------------------------------------------|
|----------------------------------------------------------|
|-0--10-8h10---------9-9-86-------10-8h10---------12-12-119|
|-0----------0000000-------0000---------0000000------------|

|-------------------------------------------------------------|
|-------------------------------------------------------------|
|-------------------------------------------------------------|
|-------------------------------------------------------------|
|-------8-6h8----------7-7-64--333333333--1111111-------------|
|-9999--------99999999----------------------------------------|

Riff 2:

|----------------------------------------------------------|
|----------------------------------------------------------|
|----------------------------------------------------------|
|----------------------------------------------------------|
|-00-0-00-000-00-0-0-0h5h7-76--00-0-00-000-00-0-0-8p7p5-73-|
|-00-0-00-000-00-0-0-----------00-0-00-000-00-0-0----------|
  ..   ..  .  ..   .           ..   ..  .  ..   .

Then Riff 1: (play twice)

|----------------------------------------------------------|
|----------------------------------------------------------|
|----------------------------------------------------------|
|----------------------------------------------------------|
|-0--10-8h10---------9-9-86-------10-8h10---------12-12-119|
|-0----------0000000-------0000---------0000000------------|

|----------------------------------------------------------|
|----------------------------------------------------------|
|----------------------------------------------------------|
|----------------------------------------------------------|
|-------8-6h8----------7-7-64--333333333--1111111----------|
|-9999--------99999999-------------------------------------|

Riff 3: Tremlo Pick

|-----------------------------------------------------------|
|-----------------------------------------------------------|
|-----------------------------------------------------------|
|-----------------------------------------------------------| x2
|-444477777777766669999999977776666-------------------------|
|-----------------------------------------------------------|

Then:

|--------------------------------------------------------------------|
|--------------------------------------------------------------------|
|--------------------------------------------------------------------|
|--------------------------------------------------------------------|
|99999999777799999999111111111212121211111111111111119999999977777777|
|--------------------------------------------------------------------|

Those are elevens and twelves, not ones and twos and nines not nineteens.

Back to Riff 2:

|----------------------------------------------------------|
|----------------------------------------------------------|
|----------------------------------------------------------|
|----------------------------------------------------------|
|-00-0-00-000-00-0-0-0h5h7-76--00-0-00-000-00-0-0-8p7p5-73-|
|-00-0-00-000-00-0-0-----------00-0-00-000-00-0-0----------|
  ..   ..  .  ..   .           ..   ..  .  ..   .
Intro:

|---------------------------------------------------|
|---------------------------------------------------|
|---------------------------------------------------|
|---------------------------------------------------|
|-0--0h5h7-76--0--0h5h7-76--0--0h5h7-76--0-0h5h7-76-|
|-0------------0------------0------------0----------|

Then one guitar plays Riff 3 while guitar two plays this:(play until riff 3 ends)

|------------------------------------|
|------------------------------------|
|------------------------------------|
|------------------------------------|
|-0-4-0-3-0-4-0-3-0-4-0-3-0-4-0-3----|
|-0---0---0---0---0---0---0---0------|

Riff 3: Tremlo Pick

|-----------------------------------------------------------|
|-----------------------------------------------------------|
|-----------------------------------------------------------|
|-----------------------------------------------------------| x2
|-444477777777766669999999977776666-------------------------|
|-----------------------------------------------------------|

Then:

|--------------------------------------------------------------------|
|--------------------------------------------------------------------|
|--------------------------------------------------------------------|
|--------------------------------------------------------------------|
|99999999777799999999111111111212121211111111111111119999999977777777|
|--------------------------------------------------------------------|

Solo: Slow

|---------------------------------------------------------------------|
|---------------------------------------------------------------------|
|---------------------------------------------------------------------|
|-12119-----8-11--11108-----5-7-8-7-5-5h7-575-8-(7)-------------------|
|-------(9)-------------(8)-------------------------------------------|
|---------------------------------------------------------------------|

|--------------------------------------------|
|--------------------------------------------|
|----------------------------(19)-14---------|
|-1211911129--911129--14-1214----------------|
|--------------------------------------------|
|--------------------------------------------|

|-----------------------------------------|
|-----------------------------------------|
|-14151412---12h14-12141215(14)-----------|
|----------16-----------------------------|
|-----------------------------------------|
|-----------------------------------------|

Once again one guitar plays Riff 3 while guitar two plays this:(play until riff 3 ends)

|------------------------------------|
|------------------------------------|
|------------------------------------|
|------------------------------------|
|-0-4-0-3-0-4-0-3-0-4-0-3-0-4-0-3----|
|-0---0---0---0---0---0---0---0------|

Riff 3: Tremlo Pick

|-----------------------------------------------------------|
|-----------------------------------------------------------|
|-----------------------------------------------------------|
|-----------------------------------------------------------| x2
|-444477777777766669999999977776666-------------------------|
|-----------------------------------------------------------|

Then:

|--------------------------------------------------------------------|
|--------------------------------------------------------------------|
|--------------------------------------------------------------------|
|--------------------------------------------------------------------|
|99999999777799999999111111111212121211111111111111119999999977777777|
|--------------------------------------------------------------------|

Fade out
Tap to rate this tab
 
# A B C D E F G H I J K L M N O P Q R S T U V W X Y Z