Guitaretab - guitar tabs
Song name
# A B C D E F G H I J K L M N O P Q R S T U V W X Y Z

Amon Amarth - Pursuit Of Vikings tab

Amon Amarth
Pursuit of the Vikings
tabbed by Dieter Oberholster

standard tuning

intro
----------------------------------------------|
----------------------------------------------|
----------------------------------------------|
----------------------------------------------|x6
----------------------------------------------|
-0--0-0-0-0--0-0-0--0-0-0---------------------|

part A
----------------------------------------------|
----------------------------------------------|
----------------------------------------------|
--------------------9-------------------------|x2
-7-------9-10---7-----------------------------|
---0-0-0------0---0---0--0-0-0--0-0-0--0-0-0--|

Part B
----------------------------------------------|
----------------------------------------------|
----------------7-----------------------------|
---------9-10-------10---9---7---7-9----------|
----------------------------------------------|
-7-7-7-7------7---7----7---7---7--------------|


----------------------------------------------|
----------------------------------------------|
----------------7-----------------------------|
---------9-10-------10---9--------------------|
---------------------------9-/10-10-9---------|
-7-7-7-7------7---7----7---7-/8--8--7---------|
[ Tab from: http://www.guitaretab.com/a/amon-amarth/54506.html ]
part C
----------------------------------------------|
----------------------------------------------|
-4--12--11-4---4--12--12--11-11-9--12-12-12---|
-x--x---x--x---x--x---x---x--x--x--x--x--x----|
-2--10--9--2---2--10--10--9--9--7--10-10-10---|
----------------------------------------------|

----------------------------------------------|
----------------------------------------------|
-12--12--12--12---11--11--11--11--9---11--9---|
-x---x---x---x----x---x---x---x---x---x---x---|
-10--10--10--10---9---9---9---9---7---9---7---|
----------------------------------------------|

part D
----------------------------------------------|
----------------------------------------------|
----------------------------------------------|
----------9999999999999999-7777-9999-10101010-|
-77777777-------------------------------------|
----------------------------------------------|

----------------------------------------------|
----------------------------------------------|
----------------------------------------------|
-1010101010101010-12121212-101010101010101010-|
----------------------------------------------|
----------------------------------------------|

----------------------------------------------|
----------------------------------------------|
------------------------77777777-99999999-----|
-1010101010101010101010-----------------------|
----------------------------------------------|
----------------------------------------------|

----------------------------------------------|
----------------------------------------------|
----------------------------------------------|
-99999999999999999999999-7777-----------------|
------------------------------10101010-9999---|
----------------------------------------------|

keep it metal..
Related for Pursuit Of Vikings tab
×
Pursuit Of Vikings