Song name
# A B C D E F G H I J K L M N O P Q R S T U V W X Y Z

Anberlin - Love Song tab

Title     : Love Song
Artist    : Anberlin
Album     : Blueprints For The Black Market
Setting   : D-A-D-G-B-E
Tabbed by : Graziano "afireinside182"
-------------------------------------------------


Intro
[--------------------------------------]
[--------------------------------------]
[---5-7-9-7-7/9\7-5----5-7-9-7-7/9\7-5-]
[-7------------------7-----------------]
[--------------------------------------]
[--------------------------------------]

Verse (The verse after the solo doesn't have any guitar until ^)
[-/            Play Twice            \--------------------------------]
[--------------------------------------------------1~---------1-0-----]
[---5-7-9-7-7b9b7-5----5-7-9-7-7b9b7-5-------------2--------------2---]
[-7------------------7-------------------7~--------2----^-2-2-------2-]
[--------------------------------------------------0------------------]
[---------------------------------------------------------------------]
  A       G          F       E           Am

Chorus
[-/          Play Thrice           \-------------------]
[------------------------------------------------------]
[-5-5-5-5--7-7-7-7--9-9-9-9--5-5-5-5--5-5-5-5--7-7-7-7-] The song ends on the
[-3-3-3-3--5-5-5-5--7-7-7-7--5-5-5-5--3-3-3-3--5-5-5-5-] second chorus with an
[-3-3-3-3--5-5-5-5--7-7-7-7--3-3-3-3--3-3-3-3--5-5-5-5-] Am (x02210)
[-3-3-3-3--5-5-5-5--7-7-7-7-----------3-3-3-3--5-5-5-5-]

Solo (Chords: A  G  F  E)
[----------------------------------------------------------------------------]
[----------------------------------------------------------------------------]
[---5-7-9-7-7b9b7-5----5-7-9-7-7b9b7-5----5-7-9-7-7b9b7-5----5-7-9-7-7b9b7-5-]
[-7------------------7------------------7------------------7-----------------]
[----------------------------------------------------------------------------]
[----------------------------------------------------------------------------]

[-7-77-7-----7-7-----7-77-7-----7-8-8/10-10------5------------------------]
[--------8-------8----------8-----------------8-8-------------------------]
[----------7-------7----------7--------------------7b8b7-5-7-7b8b7--------]
[------------------------------------------------------------------7-5-7~-]
[-------------------------------------------------------------------------]
[-------------------------------------------------------------------------]
Tap to rate this tab
# A B C D E F G H I J K L M N O P Q R S T U V W X Y Z