Song name
# A B C D E F G H I J K L M N O P Q R S T U V W X Y Z

Angels And Airwaves - Call To Arms tab

---------------------------------------------------------------------------
	                  
               Call To Arms by Angels And Airwaves
---------------------------------------------------------------------------

Tuning:Standard

I think everything in this song is clean but it might have slight distortion

Intro:

Guitar 1:(Slight Delay?)
e|------------------------------|
B|------------------------------|
G|2--2---1--1-------------------|
D|-22--22-22-42242222222422-----| x8
A|------------------------------|
E|------------------------------|

Guitar 2:(come in after first guitar 1 plays riff 2 times, Delay)
e|------------------------------|
B|------------------------------|
G|------------------------------|
D|------------------------------| x2
A|11-11-77-------99-77----------|
E|-0-0--00-------00-00----------|


e|-------------------------------|
B|9--9--9-10--10--10-7--7--7--7--|
G|-9--9--9--9---9---9-9--9--9--9-|
D|--9--9-----9---9-----9--9--9--9| x4
A|-------------------------------|
E|-------------------------------|

Verse:

(11s not 1s)
e|------------------------------|
B|------------------------------|
G|999999999999911111111111118888|
D|999999999999999999999999999999| x4
A|------------------------------|
E|------------------------------|

Repeat 2nd part of intro
Repeat Verse

Chorus:

Guitar 1:
e|7--7--7--7--5--5--5--5--4--4--4--4--5--5--5--5---|
B|-5--5--5--5--5--5--5--5--5--5--5--5--5--5--5--5--|
G|--4--4--4--4--4--4--4--4--4--4--4--4--4--4--4--4-|
D|-------------------------------------------------| x2
A|-------------------------------------------------|
E|-------------------------------------------------|

Guitar 2:(11s not 1s)
e|-------------------------------------------------|
B|-------------------------------------------------|
G|999999999999-------------------------------------|
D|999999999999999999999999111111111117777777777777-| x2
A|777777777777999999999999111111111117777777777777-|
E|------------777777777777999999999995555555555555-|

Repeat first part of intro but shorter
Pepeat Verse
Repeat Chorus
Guitar 2s intro riff once then break and play guitar 2s second part to intro
Repeat Chorus twice
Tap to rate this tab
# A B C D E F G H I J K L M N O P Q R S T U V W X Y Z