Song name
# A B C D E F G H I J K L M N O P Q R S T U V W X Y Z

Angry Samoans - Get Off The Air tab

Tabbed by: Stefan
Email: stehphyn@yahoo.com

Tuning: standard (EADGBE)


main riff:
e|------------------------------------------------------------------|
B|------------------------------------------------------------------|
G|----------12--12----------12--12----------------------------------|
D|--12--12--12--12--12--12--12--12--10--10--10--10--10--10--10--10--|
A|--12--12--10--10--12--12--10--10--10--10--10--10--10--10--10--10--|
E|--10--10----------10--10----------8---8---8---8---8---8---8---8---|


pre-chorus (you're a fucking piece of shit now, rodney):
e|----------------------------------------------------------|
B|----------------------------------------------------------|
G|--10--10--10--10------------------------------------------|
D|--10--10--10--10--10--10--10--10--5--5--5--5--7--7--7--7--|
A|--8---8---8---8---10--10--10--10--5--5--5--5--7--7--7--7--|
E|------------------8---8---8---8---3--3--3--3--5--5--5--5--|

e|----------------------------------------------|
B|----------------------------------------------|
G|--10--10--10--10------------------------------|
D|--10--10--10--10--10--10--10--10--5--5--5--5--|
A|--8---8---8---8---10--10--10--10--5--5--5--5--|
E|------------------8---8---8---8---3--3--3--3--|

--------------------------|
--------------------------|
--------------------------|
-9--9--9--9--9--9--9--9---|
-9--9--9--9--9--9--9--9---|
-7--7--7--7--7--7--7--7---|


chorus (get off the air):
e|-------------------------------------------------|
B|-------------------------------------------------|
G|-------------------------------------------------|
D|-5--5--5--5--7--7--7--7--5--5--5--5--9--9--9--9--|
A|-5--5--5--5--7--7--7--7--5--5--5--5--9--9--9--9--|
E|-3--3--3--3--5--5--5--5--3--3--3--3--7--7--7--7--|

e|-------------------------------------------------|
B|-------------------------------------------------|
G|-------------------------------------------------|
D|-5--5--5--5--7--7--7--7--5--5--5--5--9-----9-----|
A|-5--5--5--5--7--7--7--7--5--5--5--5--9-----9-----|
E|-3--3--3--3--5--5--5--5--3--3--3--3--7-----7-----|
Tap to rate this tab
 
# A B C D E F G H I J K L M N O P Q R S T U V W X Y Z