Song name
# A B C D E F G H I J K L M N O P Q R S T U V W X Y Z

Angry Samoans - Not Of This Earth tab

---------------------------------------------------------------------------
                        NOT OF THIS EARTH - Angry Samoans
---------------------------------------------------------------------------
Tabbed by: min0r_threat 
E-mail: ngrantj@yahoo.com

Tuning: Standard

This is a fun song to play, the verses alternate kinda between being palm-muted 
and played open, listen to the song and see the structure below for when its muted 
and when it isn't.

OPENING RIFF
e|------------------------------------------|
B|------------------------------------------|
G|----------------------5-555-----5-555-----|
D|--3-3-xx3xx3xx3x--555-3-333-555-3-333-----|
A|--1-1-xx1xx1xx1x--333-------333-----------|
E|------------------------------------------|
            
RIFF #1
e|------------------------------------------|
B|------------------------------------------|
G|----------------------5-555-----5-555-----|
D|--3-3-xx-3x3-333--555-3-333-555-3-333-----|
A|--1-1-xx-1x1-111--333-------333-----------|
E|------------------------------------------|

CHORUS
e|-------------------------------------------------|
B|-------------------------------------------------|
G|-------------------------------------------------|
D|---------------------10x---------10x-------------|
A|--12-12-xx-8-88-888--8-x-101010x-8-x-101010x-----|
E|--10-10-xx-6-66-666------8-8-8-x-----8-8-8-x-----|

RIFF #2
e|------------------------------------------|
B|------------------------------------------|
G|------------------------------------------|
D|--3-3-xx-3x3-333--5-xxxxxxx-5555555-------|
A|--1-1-xx-1x1-111--3-xxxxxxx-3333333-------|
E|------------------------------------------|
END RIFF
e|------------------------------------------|
B|------------------------------------------|
G|------------------------------------------|
D|---------------------10----10----10-------|
A|--12-12-xx-8-88-888--8--10-8--10-8-10-----|
E|--10-10-xx-6-66-666-----8-----8----8------|

SONG STRUCTURE:
OPENING RIFF (palm-muted)
RIFF #1 (open)
RIFF #1 x2 (palm-muted)
CHORUS x3
RIFF #1 x2 (palm-muted)
RIFF #1 (open)
RIFF #2 (open)
CHORUS x3
END RIFF

And that's it!
Tap to rate this tab
# A B C D E F G H I J K L M N O P Q R S T U V W X Y Z