Song name
# A B C D E F G H I J K L M N O P Q R S T U V W X Y Z

Animals As Leaders - Cafo tab

----------------------------------------------------------------------------
Artist:  Animals As Leaders
Album:   Animals As Leaders
Song:    CAFO
Part:    ascending and descending tapping
Mail me: jakobjugovic(at)gmail.com
----------------------------------------------------------------------------


Requested tuning: 
Drop D = [D,A,D,G,B,E] or more...

Tempo: 
4/4, easy ;)

The whole song is tapping-played,
of course with hammered and pulled notes.
So I wrote under the tab which hand 
is better for me to playing it.



|------------------------------------------------------------------|
|------------------------------------------------------------------|
|------------------------------------------------------------------|
|----------------------------------------------------------9--h11--|
|--------------------------------------7--h9--h10--14-h16----------|
|--2--h4---9--h11--9--h11-h12--14-h16------------------------------|

   L   L   R   R   L   L   L   R   R   L   L   L   R   R   L   L 



|-------------------------------------------------12-h14-h15--19---|
|------------------------------12-h14-h15--17-h19------------------|
|----------9--h11-h12--16-h18--------------------------------------|
|--14-h16----------------------------------------------------------|
|------------------------------------------------------------------|
|------------------------------------------------------------------|

   R   R   L   L   L   R   R   L   L   L   R   R   L   L   L   R



|-h21------14----------12----------15-p12--------------------------|
|------------------11----------12----------------------------------|
|------11------18----------18--------------12------9--h11-h12--16--|
|----------------------------------------------14------------------|
|------------------------------------------------------------------|
|------------------------------------------------------------------|

   R   L   L   R   L   L   R   L   R   L   L   R   L   L   L   R


 
|------------------------------------------------------------------|   \
|------------------------------------------------------------------|    | Repeat
|-h18----------------------------------------------9--h11-h12--16--|    | few times
|------11--16----------16----------17------------------------------|    | then go
|--------------16-p9-------16-p10------17-p10----------------------|    | to start
|----------------------------------------------14------------------|   /

   R   L   R   R   L   R   R   L   R   R   L   R   L   L   L   R
Tap to rate this tab
# A B C D E F G H I J K L M N O P Q R S T U V W X Y Z