Song name
# A B C D E F G H I J K L M N O P Q R S T U V W X Y Z

Anthrax - Bring The Noise tab

Intro: FAST
E|-------------------------------------------------|
B|-------------------------------------------------|
G|-------------------------------------------------|
D|-------------------------------------------------|
A|-6-7-8-------------------6-7-8-------------------|
E|-------0-0-0-0-0-0-0-0-0-------0-0-0-0-0-0-0-0-0-|

E|-------------------------------------------------|
B|-------------------------------------------------|
G|-------------------------------------------------|
D|-------------------------------------------------|
A|-6-7-8-------------------6-7-8-------------------|
E|-------0-0-0-0-0-0-0-0-0-------0-0-0-0-0-0-0-0-0-|

E|-------------------------------------------------|
B|-------------------------------------------------|
G|-------------------------------------------------|
D|-------------------------------------------------|
A|-6-7-8-------------------6-7-8-------------------|
E|-------0-0-0-0-0-0-0-0-0-------0-0-0-0-0-0-0-0-0-|

E|-------------------------------------------------|
B|-------------------------------------------------|
G|-------------------------------------------------|
D|-------------------------------------------------|
A|-6-7-8-------------------------------------------|
E|-------0-0-0-0-0-0-0-0-0-0-0-0-0-0-0-0-0-0-0-0-0-|


Verses:  4*PLAY 4 TIMES*4
E|---------------------------------------------------------|
B|---------------------------------------------------------|
G|---------------------------------------------------------|
D|---------------------------------------------------------|
A|-3-2-2---2---2/3-2-2---2---2/3-2-2---2---2/3-2-2-2-2-2-2-|
E|-1-0-0---0---0/1-0-0---0---0/1-0-0---0---0/1-0-0-0-0-0-0-|


Chorus:  4*PLAY 4 TIMES*4
E|------------------------------|
B|------------------------------|
G|------------------------------|
D|-4-4-7/4-7/4-4--4-4-7/4-7/4-4-|
A|-4-4-7/4-7/4-4--4-4-7/4-7/4-4-|
E|-2-2-5/2-5/2-2--2-2-5/2-5/2-2-|

(0:56-1:04): no guitar

Verse:  2*PLAY 2 TIMES*2
E|---------------------------------------------------------|
B|---------------------------------------------------------|
G|---------------------------------------------------------|
D|---------------------------------------------------------|
A|-3-2-2---2---2/3-2-2---2---2/3-2-2---2---2/3-2-2-2-2-2-2-|
E|-1-0-0---0---0/1-0-0---0---0/1-0-0---0---0/1-0-0-0-0-0-0-|


Chorus:  4*PLAY 4 TIMES*4
E|------------------------------|
B|------------------------------|
G|------------------------------|
D|-4-4-7/4-7/4-4--4-4-7/4-7/4-4-|
A|-4-4-7/4-7/4-4--4-4-7/4-7/4-4-|
E|-2-2-5/2-5/2-2--2-2-5/2-5/2-2-|


Verse: 4*PLAY 4 TIMES*4
E|---------------------------------------------------------|
B|---------------------------------------------------------|
G|---------------------------------------------------------|
D|---------------------------------------------------------|
A|-3-2-2---2---2/3-2-2---2---2/3-2-2---2---2/3-2-2-2-2-2-2-|
E|-1-0-0---0---0/1-0-0---0---0/1-0-0---0---0/1-0-0-0-0-0-0-|


Chorus:  4*PLAY 4 TIMES*4
E|------------------------------|
B|------------------------------|
G|------------------------------|
D|-4-4-7/4-7/4-4--4-4-7/4-7/4-4-|
A|-4-4-7/4-7/4-4--4-4-7/4-7/4-4-|
E|-2-2-5/2-5/2-2--2-2-5/2-5/2-2-|


Interlude:  4*PLAY 4 TIMES*4
E|------------------------------|
B|------------------------------|
G|------------------------------|
D|8-8-8-8------8-8-8-8----------|
A|6-6-6-6-5-6--6-6-6-6-5-6------|
E|--------3-4----------3-4------|


Verse:  3*PLAY 3 TIMES*3
E|---------------------------------------------------------|
B|---------------------------------------------------------|
G|---------------------------------------------------------|
D|---------------------------------------------------------|
A|-3-2-2---2---2/3-2-2---2---2/3-2-2---2---2/3-2-2-2-2-2-2-|
E|-1-0-0---0---0/1-0-0---0---0/1-0-0---0---0/1-0-0-0-0-0-0-|


Outro:  FAST
E|-----------------------------------------------------------------|
B|-----------------------------------------------------------------|
G|-----------------------------------------------------------------|
D|-----------------------------------------------------------------|
A|-----------------------------------------------------------------|
E|-5-5-5-5-6-6-6-6-7-7-7-7-8-8-8-8-9-9-9-9-10-10-10-10-11-11-11-11-|


E|------------------------------------------------------------------------|
B|------------------------------------------------------------------------|
G|------------------------------------------------------------------------|
D|------------------------------------------------------------------------|
A|------------------------------------------------------------------------|
E|12-12-12-12-13-13-13-13-14-14-14-14-15-15-15-15-16-16-16-16-17-17-17-17-|

               *SLOW DOWN HERE*
E|------------|---------------------|
B|------------|---------------------|
G|------------|---------------------|
D|------------|---------------------|
A|------------|-2-2-2-2-2-2-2-2-2-2-|
E|-18-18-18-18|-0-0-0-0-0-0-0-0-0-0-|
Tap to rate this tab
# A B C D E F G H I J K L M N O P Q R S T U V W X Y Z