Song name
# A B C D E F G H I J K L M N O P Q R S T U V W X Y Z

Anti-nowhere League - Streets Of London tab

tabbed by x-Doody-Dude-x
I had problems with fingering when i first started so i figgured id put a simplfied 
up (double the picking in the chorus and the verse)
Listen to the song for timing
sounds right but i tabbed it by ear so if theres errors tell me

Intro
E|------------------------------------------------------------------------|
B|------------------------------------------------------------------------|
G|------------------------------------------------------------------------|
D|14--14-14---12-11--12-14---9-11-12---11-12-14---14--14-14---12-11--12-14|
A|14--14-14---12-11--12-14---9-11-12---11-12-14---14--14-14---12-11--12-14|
D|14--14-14---12-11--12-14---9-11-12---11-12-14---14--14-14---12-11--12-14|

E|------------------------------------------------------------------------|
B|------------------------------------------------------------------------|
G|------------------------------------------------------------------------|
D|--9--14--11-7-----------------------7-7----7-7----7-7----7-7------------|
A|--9--14--11-7-----------------------7-7----7-7----7-7----7-7------------|
D|--9--14--11-7-----------------------7-7----7-7----7-7----7-7------------|

Verse
E|--------------------------------------------------------------------------|
B|--------------------------------------------------------------------------|
G|--------------------------------------------------------------------------|
D|-7-7-7-7-14-14-14-14-7-7-7-7-11-11-11-11-4-4-4-4-7-7-7-7-9-9-9-9-11-11-9-9|
A|-7-7-7-7-14-14-14-14-7-7-7-7-11-11-11-11-4-4-4-4-7-7-7-7-9-9-9-9-11-11-9-9|
D|-7-7-7-7-14-14-14-14-7-7-7-7-11-11-11-11-4-4-4-4-7-7-7-7-9-9-9-9-11-11-9-9|

E|------------------------------------------------------------------------|
B|------------------------------------------------------------------------|
G|------------------------------------------------------------------------|
D|-7-7-7-7-14-14-14-14-7-7-7-7-11-11-11-11-4-4-4-4-7-7-7-7-2-2-4-6-7-7-7-7|
A|-7-7-7-7-14-14-14-14-7-7-7-7-11-11-11-11-4-4-4-4-7-7-7-7-2-2-4-6-7-7-7-7|
D|-7-7-7-7-14-14-14-14-7-7-7-7-11-11-11-11-4-4-4-4-7-7-7-7-2-2-4-6-7-7-7-7|

Chorus

E|-----------------------------------------------------------------------|
B|-----------------------------------------------------------------------|
G|-----------------------------------------------------------------------|
D|12-12-12-12-11-11-11-11-14-14-14-14-11-11-11-11-9-9-9-9-9-9-11-12-14-14|
A|12-12-12-12-11-11-11-11-14-14-14-14-11-11-11-11-9-9-9-9-9-9-11-12-14-14|
D|12-12-12-12-11-11-11-11-14-14-14-14-11-11-11-11-9-9-9-9-9-9-11-12-14-14|

E|-----------------|
B|-----------------|
G|-----------------|
D|14-14-14-14-14-14|
A|14-14-14-14-14-14|
D|14-14-14-14-14-14|


intro
verse
chorus
verse
chorus
verse
chorus
Tap to rate this tab
# A B C D E F G H I J K L M N O P Q R S T U V W X Y Z