Song name
# A B C D E F G H I J K L M N O P Q R S T U V W X Y Z

Appleseed Cast - On Reflection tab

-------------------------------------------------------------------------------
		    ON REFLECTION - The Appleseed Cast
-------------------------------------------------------------------------------
Tabbed by: A.J. Conner
Email: ajconner123@gmail.com

Tuning: Standard, CAPO 4tH FRET (numbers relative to capo).
Use delay and reverb.

  Guitar 2 - Intro Riff, play twice:
e|---------------------------------------------------------------------------|
B|---------------------------------------------------------------------------|
G|--4--4--4--4--4--4--4--4---9--9--9--9--9--9--12--12---7--7--7--7--7--7-----|
D|----5--5--5--5--5--5--5--5--10-10-10-10-10-10--10--10---5--5--5--5--5--5---|
A|---------------------------------------------------------------------------|
E|---------------------------------------------------------------------------|

e|---------------------------------------------------------------------------|
B|------0--------------------------------------------------------------------|
G|--5-------2--2--2--2--2--2--4--4-------------------------------------------|
D|----5---5---5--5--5--5--5--5--5--5-----------------------------------------|
A|---------------------------------------------------------------------------|
E|---------------------------------------------------------------------------|

  On third time:
e|---------------------------------------------------------------------------|
B|---------------------------------------------------------------------------|
G|--4--4--4--4--4--4--4--4---9--9--9--9--9--9--12--12---7--7--7--7--7--7-----|
D|----5--5--5--5--5--5--5--5--10-10-10-10-10-10--10--10---5--5--5--5--5--5---|
A|---------------------------------------------------------------------------|
E|---------------------------------------------------------------------------|

e|---------------------------------------------------------------------------|
B|-----0---------------------------------------------------------------------|
G|--5------2--2--2--2--4--4--5--5--4~----------------------------------------|
D|----5--5---5--5--5--5--5--5--5--5------------------------------------------|
A|---------------------------------------------------------------------------|
E|---------------------------------------------------------------------------|


  Guitar 1 enters the second time Intro Riff is played (play with guitar 2):
e|------------------------------------------------------------------------0--|
B|--0-------------------0--------------------------------0----------------1--|
G|--4-------------------4---------------2----------------4----------------0--|
D|--0-------------------0---------------5----------------0----------------2--|
A|--x-------------------x---------------0----------------x----------------3--|
E|--3-------------------3--------------------------------3-------------------|
            He steps away                     From  his car       With a song

e|---------------------------------------------------------------------------|
B|------------0--------------------------0---0---0---------------------------|
G|------------4------------------2-------4---5---4---------------------------|
D|------------0------------------5-------5---5---0---------------------------|
A|------------x------------------0-------0---0---x---------------------------|
E|------------3----------------------------------3---------------------------|
   He was wrong he should've known       All along

  Guitar 1, Main Theme 1 (Play Twice):
e|---------------------------------------------------------------------------|
B|--------3--------------3--------------3--------------3---------------------|
G|--0-2-4---2-0--0-0-2-4---2-0--0-0-2-4---2-0--0-0-2-4---2-0-----------------|
D|---------------------------------------------------------------------------|
A|---------------------------------------------------------------------------|
E|---------------------------------------------------------------------------|

  Guitar 1, Main Theme 2 (Play Twice after Main Theme 1):
e|---------------------------------------------------------------------------|
B|----------3----------3--3---------3------------3--3------------------------|
G|--0-0-2-4---4--0-2-4--4--4--0-2-4---4--0-0-2-4--4--4-----------------------|
D|---------------------------------------------------------------------------|
A|---------------------------------------------------------------------------|
E|---------------------------------------------------------------------------|
   ^^Play this entire theme progression twice.

  Last time through Main Theme 2:
e|---------------------------------------------------------------------------|
B|--3-3-3------3-3-3-----3---------------------------------------------------|
G|--------4--4-------4-4-----------------------------------------------------|
D|---------------------------------------------------------------------------|
A|---------------------------------------------------------------------------|
E|---------------------------------------------------------------------------|

  Behind all of this, Guitar 2 plays its Main Riff:
e|---------------------------------------------------------------------------|
B|---------------------------------------------------------------------------|
G|---------------------------------------------------------------------------|
D|---------------------------------------------------------------------------|
A|--2-2-2-2-2-2-2-2--2-2-2-2-2-2-2-7-7-7-7-7-7-7-7--7-7-7-7-7-7-7------------|
E|---------------------------------------------------------------------------|

e|---------------------------------------------------------------------------|
B|---------------------------------------------------------------------------|
G|---------------------------------------------------------------------------|
D|---------------------------------------------------------------------------|
A|--5-5-5-5-5-5-5-5--5-5-5-5-5-5-5-3-3-3-3-3-3-3-3--3-3-3-3-3-3-3------------|
E|---------------------------------------------------------------------------|

  Guitar 1, Chorus Part 1 (Guitar 1, continued from the end of the whole 
  Main Theme, play 4 times):
e|--5-2----------------------------------------------------------------------|
B|------3-3-3-3-3-3--3--0--0-0-1-0--------------0----------------------------|
G|---------------------------------0------0-----------0----------------------|
D|-----------------------------------2--2---2-2---2-2---2--------------------|
A|---------------------------------------------------------------------------|
E|---------------------------------------------------------------------------|

  Guitar 1, Chorus Part 2 (Play twice):
e|--5-2-------------5-2-------------5-2-0-0-0-0-0-0-5-2-0-0-0-0-0-0----------|
B|------3-3-3-3-3-3-----3-3-3-3-3-3------------------------------------------|
G|---------------------------------------------------------------------------|
D|---------------------------------------------------------------------------|
A|---------------------------------------------------------------------------|
E|---------------------------------------------------------------------------|

e|--5-2-------------5-2-------------5-2-0-0-0-0-0-0-2-2-2-2-3-3-3------------|
B|------3-3-3-3-3-3-----3-3-3-3-3-3------------------------------------------|
G|---------------------------------------------------------------------------|
D|---------------------------------------------------------------------------|
A|---------------------------------------------------------------------------|
E|---------------------------------------------------------------------------|
  
  Behind Chorus Part 1, Guitar 2 plays its Main Riff. 

  Behind Chorus Part 2, Guitar 2 makes this subtle change:
e|---------------------------------------------------------------------------|
B|---------------------------------------------------------------------------|
G|---------------------------------------------------------------------------|
D|---------------------------------------------------------------------------|
A|--2-2-2-2-2-2-2-2--2-2-2-2-2-2-2-3-3-3-3-3-3-3-3--3-3-3-3-3-3-3------------|
E|---------------------------------------------------------------------------|

e|---------------------------------------------------------------------------|
B|---------------------------------------------------------------------------|
G|---------------------------------------------------------------------------|
D|---------------------------------------------------------------------------|
A|--5-5-5-5-5-5-5-5--5-5-5-5-5-5-5-7-7-7-7-7-7-7-7--7-7-7-7-7-7-7------------|
E|---------------------------------------------------------------------------|

 Right after the chorus, go straight back into the Main Theme and play the 
 whole progression once. 
 Then play Chorus pts. 1 and 2 again. Now, the bridge:

  Guitar 1, Bridge Part 1 (Play Twice):
e|---------------------------------------------------------------------------|
B|---------------------------------------------------------------------------|
G|-----0---0--0--------0---0--0----0----0---0--0--------0---0---0---0--------|
D|--0----0-----0---------0-----0-2---0----0-----0---------0----0--2---0------|
A|---------------3-2------------------------------3-2------------------------|
E|-------------------0--------------------------------0----------------------|

  Guitar 2, Bridge Part 2 (Play 4 times):
e|---------------------------------------------------------------------------|
B|------0---0--0-------------------------------------------------------------|
G|----0---0-----0--------0-----0-----0---------------------------------------|
D|--0--------------------------------------2---------------------------------|
A|----------------3-2-0----0-2---2-0---0-------------------------------------|
E|---------------------------------------3-----------------------------------|

  Guitar 2, Bridge Riffs:
    |--4-times---|          |------20-times-------|
e|-------------------------------------15------------------------------------|
B|------13--12----------------13-12-13----13-12-13---------------------------|
G|--12----------12----------12-----------------------------------------------|
D|---------------------------------------------------------------------------|
A|---------------------------------------------------------------------------|
E|---------------------------------------------------------------------------|

  Guitar 1, F*cking Epic Ending Thing (Play entire thing twice)
  This part is played three times:
e|---------------------------------------------------------------------------|
B|---------------------------------------------------------------------------|
G|--4-4-4-4-4-4-4-4-4-4-4-4-4-4-4-4-5-5-5-5-5-5-5-5-5-5-5-5-5-5-5-5----------|
D|--0-0-0-0-0-0-0-0-0-0-0-0-0-0-0-0-0-0-0-0-0-0-0-0-0-0-0-0-0-0-0-0----------|
A|--2-2-2-2-2-2-2-2-2-2-2-2-2-2-2-2-3-3-3-3-3-3-3-3-3-3-3-3-3-3-3-3----------|
E|---------------------------------------------------------------------------|

  Then on the 4th time:
e|---------------------------------------------------------------------------|
B|-----------------------------------0---0---0---0---0---0-------------------|
G|--4-4-4-4-4-4-4-4-4-4-4-4-4-4-4-4--5---4---5---4---5---4-------------------|
D|--0-0-0-0-0-0-0-0-0-0-0-0-0-0-0-0--0---0---0---0---0---0-------------------|
A|--2-2-2-2-2-2-2-2-2-2-2-2-2-2-2-2--3---2---x---2---x---x-------------------|
E|-------------------------------------------5-------5---3-------------------|

  Finally, end on: And play the main theme riff a few times if desired.
e|---------|
B|--0------|
G|--4------|
D|--0------|
A|--x------|
E|--3------|

  Guitar 2, F*cking Epic Ending Thing (Play entire thing twice)
  This part play three times:
e|---------------------------------------------------------------------------|
B|---------------------------------------------------------------------------|
G|--4-4-4-4-4-4-4-4-4-4-4-4-4-4-4-4-5-5-5-5-5-5-5-5-5-5-5-5-5-5-5-5----------|
D|--x-x-x-x-x-x-x-x-x-x-x-x-x-x-x-x-x-x-x-x-x-x-x-x-x-x-x-x-x-x-x-x----------|
A|--2-2-2-2-2-2-2-2-2-2-2-2-2-2-2-2-3-3-3-3-3-3-3-3-3-3-3-3-3-3-3-3----------|
E|---------------------------------------------------------------------------|
 
  Then on the 4th time:
e|---------------------------------------------------------------------------|
B|---------------------------------------------------------------------------|
G|--4-4-4-4-4-4-4-4-4-4-4-4-4-4-4-4------------------------------------------|
D|--x-x-x-x-x-x-x-x-x-x-x-x-x-x-x-x--5---4---2---4---2-----------------------|
A|--2-2-2-2-2-2-2-2-2-2-2-2-2-2-2-2--3---2---0---2---0---5-------------------|
E|-------------------------------------------------------3-------------------|

  End on:
e|---------|
B|---------|
G|---------|
D|---------|
A|--5------|
E|--3------|

I hope I got everything. Please rate/comment, especially if you have corrections.
Thanks.

| /  slide up
| \  slide down
| h  hammer-on
| p  pull-off
| ~  vibrato
| +  harmonic
| x  Mute note
===============================================================================
Tap to rate this tab
# A B C D E F G H I J K L M N O P Q R S T U V W X Y Z