Song name
# A B C D E F G H I J K L M N O P Q R S T U V W X Y Z

Appleseed Cast - Fight Song tab

artist:	the appleseed cast
song:	fight song
tuning:	standard


guitar 1, muted
e -------------------------------------------------------------------------|
B -------------------------------------------------------------------------|
G --13-13-13-13-13-13-13-13-13-13-13-13-13-13-13-13------------------------|
D --13-11-11-11-11-11-11-11-11-11-11-11-11-11-11-11------------------------|
A --11-11-11-11-11-11-11-11-11-11-11-11-11-11-11-11------------------------|
E -------------------------------------------------------------------------|

e -------------------------------------------------------------------------|
B -------------------------------------------------------------------------|
G --10-10-10-10-10-10-10-10-10-10-10-10-10-10-10-10------------------------|
D --10-10-10-10-10-10-10-10-10-10-10-10-10-10-10-10------------------------|
A ---9--9--9--9--9--9--9--9--9--9--9--9--9--9--9--9------------------------|
E -------------------------------------------------------------------------|

e -------------------------------------------------------------------------|
B -------------------------------------------------------------------------|
G --9-9-9-9-9-9-9-9-9-9-9-9-9-9-9-9--9-9-9-9-9-9-9-9-9-9-9-9-9-9-9-9-------|
D --9-9-9-9-9-9-9-9-9-9-9-9-9-9-9-9--9-9-9-9-9-9-9-9-9-9-9-9-9-9-9-9-------|
A --7-7-7-7-7-7-7-7-7-7-7-7-7-7-7-7--7-7-7-7-7-7-7-7-7-7-7-7-7-7-7-7-------|
E -------------------------------------------------------------------------|


guitar 2, played over guitar 1
e -------------------------------------------------------------------------|
B -----12-11--------12-11--------------------------------------------------|
G --13-------11--13-------11-----------------------------------------------|
D -------------------------------------------------------------------------|
A -------------------------------------------------------------------------|
E -------------------------------------------------------------------------|

Tap to rate this tab
 
# A B C D E F G H I J K L M N O P Q R S T U V W X Y Z