Song name
# A B C D E F G H I J K L M N O P Q R S T U V W X Y Z

Arch Enemy - The Immortal tab

#----------------------------------PLEASE NOTE---------------------------------#
#This file is the author's own work and represents their interpretation of the #
#song. You may only use this file for private study, scholarship, or research. #
#------------------------------------------------------------------------------#

THE IMMORTAL
As recorded by Arch Enemy
(From the 1999 Album BURNING BRIDGES)

Transcribed by Johannes Zetterberg L.
	

Words by Johan Liiva & Michael Amott Music by Christopher Amott & Michael Amott
Arranged by Arch Enemy

Gtr I (B E A D F# B) - 'C. Amott - Dist. Gtr.'
Gtr II (B E A D F# B) - 'M. Amott - Dist. Gtr.'

   Intro
    Q=98
    B5
   4/4
    Gtr I
    PM----| ~          ~   PM----| ~         ~
    S   T T E    E     E   S   T T E   E     E
||-----------------------------------------------|
||o----------------------------------------------|
||-----------------------------------------------|
||--------------10-----8---------------8-----6---|
||o---------7----------------------7-------------|
||--0---0-0----------------0---0-0---------------|
|
|   Gtr II
|   PM  PM----------------------------------------
|   T T S   S S  T T S S S T T S   S S T T S S S
||-----------------------------------------------|
||o----------------------------------------------|
||-----------------------------------------------|
||-----------------------------------------------|
||o-2------------2---------2-----------2---------|
||--0-0-0---0-0--0-0-0-0-0-0-0-0---0-0-0-0-0-0-0-|


                                         Q=195
  B5                     E5  G5  F5  C5      B5         (B5)
  PM----| ~          ~               ~
  S   T T E    E     E   E   E   E   E    4x W          +W
|-----------------------------------------||----------|--------||
|----------------------------------------o||----------|--------||
|-----------------------------------------||----------|--------||
|-----------------------------------------||-2--------|-(2)----||
|---------7---10-----8---0---3---1-------o||-2--------|-(2)----||
|-0---0-0----------------------------1----||-0--------|-(0)----||
|
|--------------------------------------|
| T T S   S S  T T S S S S S S S S S S S  4x W          +W
|-----------------------------------------||----------|--------||
|----------------------------------------o||----------|--------||
|-----------------------------------------||----------|--------||
|------------------------2---5---3--------||-2--------|-(2)----||
|-2------------2---------0-0-3-3-1-1-3---o||-2--------|-(2)----||
|-0-0-0---0-0--0-0-0-0-0-------------1-1--||-0--------|-(0)----||


 Pre-Verse
  B5                         N.C.(B)
    PM----|      PM----|       PM----|     PM--------|
  E S S S S  E E S S S S E   E S S S S E E S S S S S S
|--------------------------|---------------------------|
|--------------------------|---------------------------|
|--------------------------|---------------------------|
|-----------10-9-----------|---------------------------|
|-7----------------------8-|-7-------------------------|
|---0-0-0-0------0-0-0-0---|---0-0-0-0-6-7-0-0-0-0-0-0-|
|
| E E   Q      H             W
|--------------------------|---------------------------|
|--------------------------|---------------------------|
|--------------------------|---------------------------|
|--------------------------|---------------------------|
|-2------------------------|---------------------------|
|-0------------------------|---------------------------|


  Gtr I
    PM----|      PM----|       PM----|     PM--------|
  E S S S S  E E S S S S E   E S S S S E E S S S S S S
|--------------------------|---------------------------|
|--------------------------|---------------------------|
|--------------------------|---------------------------|
|-----------10-9-----------|---------------------------|
|-7------------------------|---------------------------|
|---0-0-0-0------0-0-0-0-3-|-2-0-0-0-0-2-1-0-0-0-0-0-0-|
|
| W                          W
|--------------------------|---------------------------|
|--------------------------|---------------------------|
|--------------------------|---------------------------|
|--------------------------|---------------------------|
|--------------------------|---------------------------|
|--------------------------|---------------------------|


    PM----|      PM----|       PM----|     PM--------|
  E S S S S  E E S S S S E   E S S S S E E S S S S S S
|--------------------------|---------------------------|
|--------------------------|---------------------------|
|--------------------------|---------------------------|
|-----------10-9-----------|---------------------------|
|-7----------------------8-|-7-------------------------|
|---0-0-0-0------0-0-0-0---|---0-0-0-0-6-7-0-0-0-0-0-0-|
|
| W                          W
|--------------------------|---------------------------|
|--------------------------|---------------------------|
|--------------------------|---------------------------|
|--------------------------|---------------------------|
|--------------------------|---------------------------|
|--------------------------|---------------------------|


                         D5  C#5    C5
    PM----|      PM----|
  E S S S S  E E S S S S E   E Q  E E E Q
|--------------------------|---------------||
|--------------------------|---------------||
|--------------------------|---------------||
|-----------10-9-----------|---------------||
|-7----------------------5-|-4----4-3------||
|---0-0-0-0------0-0-0-0-3-|-2----2-1------||
|
| H            Q     E   E   E Q  E E E Q
|--------------------------|---------------||
|--------------------------|---------------||
|--------------------------|---------------||
|--------------------------|---------------||
|------------------------5-|-4----4-3------||
|------------------------3-|-2----2-1------||


   Verse #1 & 2
    $
    N.C.(B)
      PM----|      PM----|       PM----|     PM--------|
    E S S S S  E E S S S S E   E S S S S E E S S S S S S
||---------------------------|---------------------------|
||o--------------------------|---------------------------|
||---------------------------|---------------------------|
||------------10-9-----------|---------------------------|
||o-7----------------------8-|-7-------------------------|
||----0-0-0-0------0-0-0-0---|---0-0-0-0-6-7-0-0-0-0-0-0-|
|
|     PM----|      PM----|       PM----|     PM--------|
|   E S S S S  E E S S S S E   E S S S S E E S S S S S S
||---------------------------|---------------------------|
||o--------------------------|---------------------------|
||---------------------------|---------------------------|
||---------------------------|---------------------------|
||o-7----------8-7---------8-|-7-------------------------|
||----0-0-0-0------0-0-0-0---|---0-0-0-0-6-7-0-0-0-0-0-0-|


    PM----|      PM----|       PM----|     PM--------|
  E S S S S  E E S S S S E   E S S S S E E S S S S S S  3x
|--------------------------|----------------------------||
|--------------------------|---------------------------o||
|--------------------------|----------------------------||
|-----------10-9-----------|----------------------------||
|-7------------------------|---------------------------o||
|---0-0-0-0------0-0-0-0-3-|-2-0-0-0-0-2-1-0-0-0-0-0-0--||
|
|   PM----|      PM----|       PM----|     PM--------|
| E S S S S  E E S S S S E   E S S S S E E S S S S S S  3x
|--------------------------|----------------------------||
|--------------------------|---------------------------o||
|--------------------------|----------------------------||
|--------------------------|----------------------------||
|-7----------8-7-----------|---------------------------o||
|---0-0-0-0------0-0-0-0-3-|-2-0-0-0-0-2-1-0-0-0-0-0-0--||


  N.C.(B)
    PM----|      PM----|       PM----|     PM--------|
  E S S S S  E E S S S S E   E S S S S E E S S S S S S
|--------------------------|---------------------------|
|--------------------------|---------------------------|
|--------------------------|---------------------------|
|-----------10-9-----------|---------------------------|
|-7----------------------8-|-7-------------------------|
|---0-0-0-0------0-0-0-0---|---0-0-0-0-6-7-0-0-0-0-0-0-|
|
|   PM----|      PM----|       PM----|     PM--------|
| E S S S S  E E S S S S E   E S S S S E E S S S S S S
|--------------------------|---------------------------|
|--------------------------|---------------------------|
|--------------------------|---------------------------|
|--------------------------|---------------------------|
|-7----------8-7---------8-|-7-------------------------|
|---0-0-0-0------0-0-0-0---|---0-0-0-0-6-7-0-0-0-0-0-0-|


                         D5  C#5         C5
    PM----|      PM----|       PM----|     PM----|
  E S S S S  E E S S S S E   E S S S S E E S S S S E
|--------------------------|-------------------------||
|--------------------------|-------------------------||
|--------------------------|-------------------------||
|-----------10-9-----------|-------------------------||
|-7----------------------5-|-4---------4-3---------3-||
|---0-0-0-0------0-0-0-0-3-|-2-2-2-2-2-2-1-1-1-1-1-1-||
|
|   PM----|      PM----|       PM----|     PM----|
| E S S S S  E E S S S S E   E S S S S E E S S S S E
|--------------------------|-------------------------||
|--------------------------|-------------------------||
|--------------------------|-------------------------||
|--------------------------|-------------------------||
|-7----------8-7---------5-|-4---------4-3---------3-||
|---0-0-0-0------0-0-0-0-3-|-2-2-2-2-2-2-1-1-1-1-1-1-||


 Pre-Chorus
  $$
  B5                    B5
  Gtr I
             ~~               ~~
  E  E E  E  Q   E  E   E  E  Q   E E  E E
|---------------------|--------------------|
|---13---10h12-----10-|--------------------|
|---------------------|---11h12-----9-11-8-|
|---10----7h=9------7-|--------------------|
|---------------------|----9h10-----7--9-6-|
|---------------------|--------------------|
| E  E E  E  Q   E  E   E  E  Q   E E  E E
|
| Gtr II
| PM----------------------------------------
| E  E E  E  E E E  E   E  E  E E E E  E E
|---------------------|--------------------|
|---------------------|--------------------|
|---------------------|--------------------|
|---------------------|--------------------|
|-2--2-2--2--2-2-2--2-|-2--2--2-2-2-2--2-2-|
|-0--0-0--0--0-0-0--0-|-0--0--0-0-0-0--0-0-|


  C5                    C5
             ~~               ~~
  E  E E  E  Q   E  E   E  E  Q   E E  E E
|---------------------|--------------------|
|---13---10h12-----10-|--------------------|
|---------------------|---11h12-----9-11-8-|
|---10----7h=9------7-|--------------------|
|---------------------|----9h10-----7--9-6-|
|---------------------|--------------------|
| E  E E  E  Q   E  E   E  E  Q   E E  E E
|
|----------------------------------------|
| E  E E  E  E E E  E   E  E  E E E E  E E
|---------------------|--------------------|
|---------------------|--------------------|
|---------------------|--------------------|
|---------------------|--------------------|
|-3--3-3--3--3-3-3--3-|-3--3--3-3-3-3--3-3-|
|-1--1-1--1--1-1-1--1-|-1--1--1-1-1-1--1-1-|


  C#5                   C#5
             ~~               ~~
  E  E E  E  Q   E  E   E  E  Q   E E  E E
|---------------------|--------------------|
|---13---10h12-----10-|--------------------|
|---------------------|---11h12-----9-11-8-|
|---10----7h=9------7-|--------------------|
|---------------------|----9h10-----7--9-6-|
|---------------------|--------------------|
| E  E E  E  Q   E  E   E  E  Q   E E  E E
|
| PM----------------------------------------
| E  E E  E  E E E  E   E  E  E E E E  E E
|---------------------|--------------------|
|---------------------|--------------------|
|---------------------|--------------------|
|---------------------|--------------------|
|-4--4-4--4--4-4-4--4-|-4--4--4-4-4-4--4-4-|
|-2--2-2--2--2-2-2--2-|-2--2--2-2-2-2--2-2-|


                                  To Coda
  C5                    C5
             ~~               ~~
  E  E E  E  Q   E  E   E  E  Q   E E  E E
|---------------------|--------------------||
|---13---10h12-----10-|--------------------||
|---------------------|---11h12-----9-11-8-||
|---10----7h=9------7-|--------------------||
|---------------------|----9h10-----7--9-6-||
|---------------------|--------------------||
| E  E E  E  Q   E  E   E  E  Q   E E  E E
|
|----------------------------------------|
| E  E E  E  E E E  E   E  E  E E E E  E E
|---------------------|--------------------||
|---------------------|--------------------||
|---------------------|--------------------||
|---------------------|--------------------||
|-3--3-3--3--3-3-3--3-|-3--3--3-3-3-3--3-3-||
|-1--1-1--1--1-1-1--1-|-1--1--1-1-1-1--1-1-||


 Chorus #1 & 3
  B5                    B5
             ~~               ~~
  E  E E  E  Q   E  E   E  E  Q   E E  E E
|---------------------|--------------------|
|---13---10h12-----10-|--------------------|
|---------------------|---11h12-----9-11-8-|
|---10----7h=9------7-|--------------------|
|---------------------|----9h10-----7--9-6-|
|---------------------|--------------------|
| E  E E  E  Q   E  E   E  E  Q   E E  E E
|
| E  E E  E  E E E  E   E  E  E E E E  E E
|---------------------|--------------------|
|---------------------|--------------------|
|-9--9-9--9--9-9-9--9-|-9--9--9-9-9-9--9-9-|
|-9--9-9--9--9-9-9--9-|-9--9--9-9-9-9--9-9-|
|-7--7-7--7--7-7-7--7-|-7--7--7-7-7-7--7-7-|
|---------------------|--------------------|


  F#/A#                 F#/A#
             ~~               ~~
  E  E E  E  Q   E  E   E  E  Q   E E  E E
|---------------------|--------------------|
|---13---10h12-----10-|--------------------|
|---------------------|---11h12-----9-11-8-|
|---10----7h=9------7-|--------------------|
|---------------------|----9h10-----7--9-6-|
|---------------------|--------------------|
| E  E E  E  Q   E  E   E  E  Q   E E  E E
|
| E  E E  E  E E E  E   E  E  E E E E  E E
|---------------------|--------------------|
|---------------------|--------------------|
|-8--8-8--8--8-8-8--8-|-8--8--8-8-8-8--8-8-|
|-9--9-9--9--9-9-9--9-|-9--9--9-9-9-9--9-9-|
|-6--6-6--6--6-6-6--6-|-6--6--6-6-6-6--6-6-|
|---------------------|--------------------|


  F#m/A                 F#m/A
             ~~               ~~
  E  E E  E  Q   E  E   E  E  Q   E E  E E
|---------------------|--------------------|
|---13---10h12-----10-|--------------------|
|---------------------|---11h12-----9-11-8-|
|---10----7h=9------7-|--------------------|
|---------------------|----9h10-----7--9-6-|
|---------------------|--------------------|
| E  E E  E  Q   E  E   E  E  Q   E E  E E
|
| E  E E  E  E E E  E   E  E  E E E E  E E
|---------------------|--------------------|
|---------------------|--------------------|
|-7--7-7--7--7-7-7--7-|-7--7--7-7-7-7--7-7-|
|-9--9-9--9--9-9-9--9-|-9--9--9-9-9-9--9-9-|
|-5--5-5--5--5-5-5--5-|-5--5--5-5-5-5--5-5-|
|---------------------|--------------------|


                             To Dbl. Coda
  E/G#                  E/G#
  E  E E  E  Q   E  E   E E Q   E  E E E
|---------------------|-------------------||
|---10----------------|-------------------||
|--------11h12-----11-|---8h9---8---------||
|----7----------------|-----------10-9p7--||
|---------9h10------9-|---6h7-------------||
|---------------------|-------------------||
| E  E E  E  Q   E  E   E E Q   H
|
| E  E E  E  E E E  E   E E E E E  E E E
|---------------------|-------------------||
|---------------------|-------------------||
|-6--6-6--6--6-6-6--6-|-6-6-6-6-6--6-6-6--||
|-7--7-7--7--7-7-7--7-|-7-7-7-7-7--7-7-7--||
|-4--4-4--4--4-4-4--4-|-4-4-4-4-4--4-4-4--||
|---------------------|-------------------||


   Bridge
    Q=98
    B5
    PM----| ~          ~   PM----| ~         ~
    S   T T E    E     E   S   T T E   E     E
||-----------------------------------------------|
||o----------------------------------------------|
||-----------------------------------------------|
||--------------10-----8---------------8-----6---|
||o---------7----------------------7-------------|
||--0---0-0----------------0---0-0---------------|
|
|   PM--------------------------------------------
|   T T S   S S  T T S S S T T S   S S T T S S S
||-----------------------------------------------|
||o----------------------------------------------|
||-----------------------------------------------|
||-----------------------------------------------|
||o-2------------2---------2-----------2---------|
||--0-0-0---0-0--0-0-0-0-0-0-0-0---0-0-0-0-0-0-0-|


                             D.S. al Coda
  B5                     E5  G5  F5  C5
  PM----| ~          ~               ~
  S   T T E    E     E   E   E   E   E
|------------------------------------------||
|-----------------------------------------o||
|------------------------------------------||
|------------------------------------------||
|---------7---10-----8---0---3---1--------o||
|-0---0-0----------------------------1-----||
|
|--------------------------------------|
| T T S   S S  T T S S S S S S S S S S S
|------------------------------------------||
|-----------------------------------------o||
|------------------------------------------||
|------------------------2---5---3---------||
|-2------------2---------0-0-3-3-1-1-3----o||
|-0-0-0---0-0--0-0-0-0-0-------------1-1---||


 Chorus #2
  Q=195
  &
  B5                    B5
             ~~               ~~
  E  E E  E  Q   E  E   E  E  Q   E E  E E
|---------------------|--------------------|
|---13---10h12-----10-|--------------------|
|---------------------|---11h12-----9-11-8-|
|---10----7h=9------7-|--------------------|
|---------------------|----9h10-----7--9-6-|
|---------------------|--------------------|
| E  E E  E  Q   E  E   E  E  Q   E E  E E
|
| E  E E  E  E E E  E   E  E  E E E E  E E
|---------------------|--------------------|
|---------------------|--------------------|
|-9--9-9--9--9-9-9--9-|-9--9--9-9-9-9--9-9-|
|-9--9-9--9--9-9-9--9-|-9--9--9-9-9-9--9-9-|
|-7--7-7--7--7-7-7--7-|-7--7--7-7-7-7--7-7-|
|---------------------|--------------------|


  F#/A#                 F#/A#
             ~~               ~~
  E  E E  E  Q   E  E   E  E  Q   E E  E E
|---------------------|--------------------|
|---13---10h12-----10-|--------------------|
|---------------------|---11h12-----9-11-8-|
|---10----7h=9------7-|--------------------|
|---------------------|----9h10-----7--9-6-|
|---------------------|--------------------|
| E  E E  E  Q   E  E   E  E  Q   E E  E E
|
| E  E E  E  E E E  E   E  E  E E E E  E E
|---------------------|--------------------|
|---------------------|--------------------|
|-8--8-8--8--8-8-8--8-|-8--8--8-8-8-8--8-8-|
|-9--9-9--9--9-9-9--9-|-9--9--9-9-9-9--9-9-|
|-6--6-6--6--6-6-6--6-|-6--6--6-6-6-6--6-6-|
|---------------------|--------------------|


  F#m/A                 F#m/A
             ~~               ~~
  E  E E  E  Q   E  E   E  E  Q   E E  E E
|---------------------|--------------------|
|---13---10h12-----10-|--------------------|
|---------------------|---11h12-----9-11-8-|
|---10----7h=9------7-|--------------------|
|---------------------|----9h10-----7--9-6-|
|---------------------|--------------------|
| E  E E  E  Q   E  E   E  E  Q   E E  E E
|
| E  E E  E  E E E  E   E  E  E E E E  E E
|---------------------|--------------------|
|---------------------|--------------------|
|-7--7-7--7--7-7-7--7-|-7--7--7-7-7-7--7-7-|
|-9--9-9--9--9-9-9--9-|-9--9--9-9-9-9--9-9-|
|-5--5-5--5--5-5-5--5-|-5--5--5-5-5-5--5-5-|
|---------------------|--------------------|


  E/G#                  E/G#           G5
                                       ~~~~
  E  E E  E  Q   E  E   E E Q   E  E E E
|---------------------|---------------------||
|---10----------------|---------------------||
|--------11h12-----11-|---8h9---8------7b9==||
|----7----------------|-----------10-9------||
|---------9h10------9-|---6h7---------------||
|---------------------|---------------------||
| E  E E  E  Q   E  E   E E Q   H
|
| E  E E  E  E E E  E   E E E E E  E E E
|---------------------|---------------------||
|---------------------|---------------------||
|-6--6-6--6--6-6-6--6-|-6-6-6-6-6--6-6------||
|-7--7-7--7--7-7-7--7-|-7-7-7-7-7--7-7-5----||
|-4--4-4--4--4-4-4--4-|-4-4-4-4-4--4-4-3----||
|---------------------|---------------------||


 Guitar Solo #1 - C. Amott
  (G5) E5        G5  (G5)  E5              G5
   ~~~                ~~~~~~~~~~~~~~~~~
                      |--3---|   |---3---|
  +Q   e e e e e e    q  q   q   q   q   Q
|------------------|-------------------------|
|------------------|-------------------------|
|-(7)--7-7-7-7-7-7-|--7--7---7---7---7---7r==|
|------------------|-------------------------|
|------------------|-------------------------|
|------------------|-------------------------|
|
|      PM------|           PM----------|
| +Q   E E E E E E   +Q    E   E E E   E   E
|------------------|-------------------------|
|------------------|-------------------------|
|------------------|-------------------------|
|-(5)--2-2-2-2-2-5-|-(5)---2---2-2-2---2---5-|
|-(3)--0-0-0-0-0-3-|-(3)---0---0-0-0---0---3-|
|------------------|-------------------------|


  (G5)  E5            A#5 A5   C5      G5
                  ~~~~~~~~~~~
  +H..            E   S S H.           E
|-------------------|------------------------|
|-------------------|------------------8b10==|
|-(7)-------------7-|-5h7p5------------------|
|-------------------|------------------------|
|-------------------|------------------------|
|-------------------|------------------------|
|
|       PM--------|          PM    PM|
| +Q    E E E E E E   E   E  E  Q  E E E
|-------------------|------------------------|
|-------------------|------------------------|
|-------------------|------------------------|
|-(5)---2-2-2-2-2-2-|-8s==7----10--8-7-5-----|
|-(3)---0-0-0-0-0-0-|-6s==5--0--8--6-5-3-----|
|-------------------|------------------------|


  (G5) E5                                  G5           (G5) E5            G5
   ~~~~~~~~                                  ~~~~~~~~~~~~~~~~~~~~~~~~~~
       |--3--| |----3----|   |---3---|   |----3----|
  +Q   E E   E S    +S   E   E S    +S   E   S    +S    +Q   +E  E +H
|-----------------------------------------------------|----------------------|
|-(8)--8r8-------------------8------------------------|----------------------|
|------------9-7b9==(7)r-9-----7b9==(7)r-9---7b9==(7)-|-(7)r=(7)p5-(5)-------|
|-----------------------------------------------------|----------------------|
|-----------------------------------------------------|----------------------|
|-----------------------------------------------------|----------------------|
|
|      PM----------------------|                              PM---------|
| +Q   E   E   E           E   E           E            +Q    E  E  E  E E E
|-----------------------------------------------------|----------------------|
|-----------------------------------------------------|----------------------|
|-----------------------------------------------------|----------------------|
|-(5)--2---2---2-----------2---2-----------5----------|-(5)---2--2--2--2-2-5-|
|-(3)--0---0---0-----------0---0-----------3----------|-(3)---0--0--0--0-0-3-|
|-----------------------------------------------------|----------------------|


  (G5)      E5
                        ~~~~~~~~~~~~
   |--3---|  |---3---|
   E   E  E  E  E    E  E      +Q.
|---------------------------------------|
|-------------------13-15b17==(15)r-----|
|-----------12h14-----------------------|
|-12--13-14-----------------------------|
|---------------------------------------|
|---------------------------------------|
|
|            PM-----------------------|
| +Q         E    E     E       E   E E
|---------------------------------------|
|---------------------------------------|
|---------------------------------------|
|-(5)--------2----2-----2-------2---2-2-|
|-(3)--------0----0-----0-------0---0-0-|
|---------------------------------------|


  A#5   A5         C5                   C5
                          ~~~~~~~~~~~~
   |---3---|  |---3----|
   E  E    E  E  E     E  E      +Q      S  S
|------------------------15b17==(15)r---15s17-|
|---------------------13----------------------|
|------------12h14----------------------------|
|-12-13---14----------------------------------|
|---------------------------------------------|
|---------------------------------------------|
|
|             PM                  PM--|
|  E    E     E     Q             E   E  E
|---------------------------------------------|
|---------------------------------------------|
|---------------------------------------------|
|--8s===7----------10-------------8---7--3----|
|--6s===5-----0-----8-------------6---5--3----|
|----------------------------------------1----|


  (C5)
                                               ~~~~~~~
   S   S  S  S  S  S  S  S  S  S  S  S   S  S  E
|-17--17-17-17-19-19-19-19-20-20-20-20-/22-22-22b24==|
|----------------------------------------------------|
|----------------------------------------------------|
|----------------------------------------------------|
|----------------------------------------------------|
|----------------------------------------------------|
|
| +W
|----------------------------------------------------|
|----------------------------------------------------|
|----------------------------------------------------|
|-(3)------------------------------------------------|
|-(3)------------------------------------------------|
|-(1)------------------------------------------------|


  (C5)               G5
 ~~~~~~~~~~~~~~~~
                      |--3--|
   +H      +Q      E  S  S  S
|-(22)----(22)r\--------------|
|-----------------------------|
|-----------------------------|
|-----------------------------|
|-----------------10s12-14-15-|
|-----------------------------|
|
|  +H      +Q.        E
|-----------------------------|
|-----------------------------|
|---------------------5-------|
|--(3)-----(3)--------5-------|
|--(3)-----(3)--------3-------|
|--(1)-----(1)----------------|


  G5                                          F#sus4/D(F#sus4/D#)
   S   S  S  S  S  S  S  S  S   S  S  S  S  S  S  S
|---------------------------------------------------|
|------------------------------------------------13-|
|------------------------------12-14-16-12-14-16----|
|-----------12-14-15-12-14-15-----------------------|
|-12--14-15-----------------------------------------|
|---------------------------------------------------|
|
|----------------------------------------------------
| +H                       +Q.                 E
|---------------------------------------------------|
|---------------------------------------------------|
|-(5)----------------------(5)-----------------4----|
|-(5)----------------------(5)-----------------2----|
|-(3)----------------------(3)-----------------2----|
|----------------------------------------------4----|


                                             G5
   S   S  S  S  S  S  S  S  S  S  S  S  S  S  S  S
|-----------------13-15-17----------13-15-17-------||
|-15--17-13-15-17----------13-15-17----------13-15-||
|--------------------------------------------------||
|--------------------------------------------------||
|--------------------------------------------------||
|--------------------------------------------------||
|
|--------|PM---------------------------|
| +E      E     E     E     E     E     E     E
|--------------------------------------------------||
|--------------------------------------------------||
|-(4)-----------------------------4-----7----------||
|-(2)-----------------3-----6-----6-----9-----5----||
|-(2)-----2-----5-----5-----8-----------------3----||
|-(4)-----4-----7----------------------------------||
   E      E     E     E     E     E     E     E


 Guitar Solo #2 - C. Amott
  (G5)         E5                            G5
   S   S  S  S  S  S  S  S  S  S  S  S  S  S  S  S
|-----13-15-17----------14-16-18----------14-16-18-|
|-17-----------14-16-18----------14-16-18----------|
|--------------------------------------------------|
|--------------------------------------------------|
|--------------------------------------------------|
|--------------------------------------------------|
|
|               PM---------------------|
| +Q            E     E     E     E     E     E
|--------------------------------------------------|
|--------------------------------------------------|
|--------------------------------------------------|
|-(5)-----------2-----2-----2-----2-----2-----5----|
|-(3)-----------0-----0-----0-----0-----0-----3----|
|--------------------------------------------------|


  (G5)         E5                            G5
   S   S  S  S  S  S  S  S  S  S  S  S  S  S  S  S
|-----------15-17-19----------15-17-19-------15-16-|
|-15--17-19----------15-17-19----------15-17-------|
|--------------------------------------------------|
|--------------------------------------------------|
|--------------------------------------------------|
|--------------------------------------------------|
|
|               PM---------------------|
| +Q            E     E     E     E     E     E
|--------------------------------------------------|
|--------------------------------------------------|
|--------------------------------------------------|
|-(5)-----------2-----2-----2-----2-----2-----5----|
|-(3)-----------0-----0-----0-----0-----0-----3----|
|--------------------------------------------------|


  (G5)         E5
   S   S  S  S  S  S  S  S  S  S  S  S  S  S  S  S
|-18--20----------17-20-17----------17-20-17-------|
|--------16-18-20----------18-17-18----------18-17-|
|--------------------------------------------------|
|--------------------------------------------------|
|--------------------------------------------------|
|--------------------------------------------------|
|
|               PM---------------------------|
| +Q            E     E     E     E     E     E
|--------------------------------------------------|
|--------------------------------------------------|
|--------------------------------------------------|
|-(5)-----------2-----2-----2-----2-----2-----2----|
|-(3)-----------0-----0-----0-----0-----0-----0----|
|--------------------------------------------------|


  A#5   A5          C5                      G5
   S  S  S  S  S  S  S  S  S  S  S  S  S  S  S  S
|----18-21-18----------18-21-18----------19-21-19-|
|-18----------19-18-19----------19-18-19----------|
|-------------------------------------------------|
|-------------------------------------------------|
|-------------------------------------------------|
|-------------------------------------------------|
|
|              PM                PM---|
|  E     E     E     Q           E     E     E
|-------------------------------------------------|
|-------------------------------------------------|
|-------------------------------------------------|
|--8s====7----------10-----------8-----7-----5----|
|--6s====5-----0-----8-----------6-----5-----3----|
|-------------------------------------------------|


  (G5)         E5                            G5
   S   S  S  S  S  S  S  S  S  S  S  S  S  S  S  S
|-----------19-22-19----------20-23-20----------20-|
|-20--18-20----------20-19-20----------21-20-21----|
|--------------------------------------------------|
|--------------------------------------------------|
|--------------------------------------------------|
|--------------------------------------------------|
|
|               PM---------------------|
| +Q            E     E     E     E     E     E
|--------------------------------------------------|
|--------------------------------------------------|
|--------------------------------------------------|
|-(5)-----------2-----2-----2-----2-----2-----5----|
|-(3)-----------0-----0-----0-----0-----0-----3----|
|--------------------------------------------------|


  (G5)         E5                            G5
   S   S  S  S  S  S  S  S  S  S  S  S  S  S  S  S
|-23--20----------21-24-21----------21-24-21-------|
|--------21-20-21----------22-21-22----------22-21-|
|--------------------------------------------------|
|--------------------------------------------------|
|--------------------------------------------------|
|--------------------------------------------------|
|
|               PM---------------------|
| +Q            E     E     E     E     E     E
|--------------------------------------------------|
|--------------------------------------------------|
|--------------------------------------------------|
|-(5)-----------2-----2-----2-----2-----2-----5----|
|-(3)-----------0-----0-----0-----0-----0-----3----|
|--------------------------------------------------|


  (G5)         E5
   S   S  S  S  S  S  S  S  S  S  S  S  S  S  S  S
|-----21-24-21----------22-25-22----------22-25-22-|
|-22-----------22-21-23----------23-22-23----------|
|--------------------------------------------------|
|--------------------------------------------------|
|--------------------------------------------------|
|--------------------------------------------------|
|
|               PM---------------------------|
| +Q            E     E     E     E     E     E
|--------------------------------------------------|
|--------------------------------------------------|
|--------------------------------------------------|
|-(5)-----------2-----2-----2-----2-----2-----2----|
|-(3)-----------0-----0-----0-----0-----0-----0----|
|--------------------------------------------------|


  A#5   A5          C5                      C5
   S  S  S  S  S  S  S  S  S  S  S  S  S  S  E
|----------22-26-23----------23-26-23-------27b29==|
|-23-22-23----------24-23-24----------24-23--------|
|--------------------------------------------------|
|--------------------------------------------------|
|--------------------------------------------------|
|--------------------------------------------------|
|
|              PM                PM---|
|  E     E     E     Q           E     E     E
|--------------------------------------------------|
|--------------------------------------------------|
|--------------------------------------------------|
|--8s====7----------10-----------8-----7-----3-----|
|--6s====5-----0-----8-----------6-----5-----3-----|
|--------------------------------------------1-----|


  (C5)
    ~~~~~         ~~~~~        ~~~~~        ~~~~~
   +Q     E      +E    E      +E    S      +S   E
|-(27)r--27b29==(27)r-27b29==(27)r-27b29==(27)r27b29==|
|-----------------------------------------------------|
|-----------------------------------------------------|
|-----------------------------------------------------|
|-----------------------------------------------------|
|-----------------------------------------------------|
|
|  +W
|-----------------------------------------------------|
|-----------------------------------------------------|
|-----------------------------------------------------|
|--(3)------------------------------------------------|
|--(3)------------------------------------------------|
|--(1)------------------------------------------------|


  (C5)                                  G5
          \1___|   /1___|   \1______\1/  /3___
    ~~~~~                                ~~~~
   +Q.    E    a  +E    a  +E   +E  a    E
|-(27)r--------------------------------------|
|---------0---(0)-(0)--(0)-(0)--(0)----------|
|-----------------------------------0---<3>--|
|--------------------------------------------|
|--------------------------------------------|
|--------------------------------------------|
|
|  +H             +Q.                    E
|--------------------------------------------|
|--------------------------------------------|
|----------------------------------------5---|
|--(3)------------(3)--------------------5---|
|--(3)------------(3)--------------------3---|
|--(1)------------(1)------------------------|


  (G5)                F#sus4/(F#sus4/D#)         B5
                  |    \7_____________________|
    ~~~~~~~~~~~~~~~~~~
   +H.           +E    E      +H.            +E   E
|--------------------------|-------------------------||
|--------------------------|-------------------------||
|-(<3>)---------(<3>)------|-------------------------||
|--------------------------|----------------------9--||
|--------------------------|----------------------7--||
|---------------------12---|-(12)-----------(12)-----||
|
|---------------------------------PM--------|
|  +H      +Q.         E      +E  E E E E E   E   E
|--------------------------|-------------------------||
|--------------------------|---------------------12/-||
|--(5)-----(5)---------4---|--(4)---------4---7------||
|--(5)-----(5)---------2---|--(2)-----3-6-6---9------||
|--(3)-----(3)---------2---|--(2)-2-5-5-8------------||
|----------------------4---|--(4)-4-7----------------||
                               E  E E E E E   E   E


 Guitar Solo #3 - M. Amott
  (B5) B5    A5            G5    (G5)G5
   +E   E  E   Q      E  E   E   +E   E  E  E  E  E  E  E
|------------------------------|--------------------------|
|------------------------------|--------------------------|
|------------------------------|--------------------------|
|--(9)--9--9---7------7--7---5-|-(5)--5--5--5--5--5--5--5-|
|--(7)--7--7---5------5--5---3-|-(3)--3--3--3--3--3--3--3-|
|------------------------------|--------------------------|
|
|   E   E  E   E  E   E  E   E    E   E  E  E  E  E  E  E
|------------------------------|--------------------------|
|-/17--------/15-15------------|--------------------------|
|------16-16--------/14-14-/16-|-16--14s12-14-12s11-12-11-|
|------------------------------|--------------------------|
|------------------------------|--------------------------|
|------------------------------|--------------------------|


  G5       A5                B5    (B5) B5
   E  E  E  Q    E     E      E    +E   E E E E E E   E
|--------------------------------|----------------------|
|--------------------------------|----------------------|
|--------------------------------|----------------------|
|--5--5--5--7----7-----7------9--|-(9)--9-9-9-9-9-9---9-|
|--3--3--3--5----5-----5------7--|-(7)--7-7-7-7-7-7---7-|
|--------------------------------|----------------------|
|
|                ~~~~~~~~~~~~~~~~~~~~~~~
|  E  E  E  E  E E.      +S  +E     H..             a E
|--------------------------------|----------------------|
|-------------10-----------------|----------------------|
|----11----------9b11====(9)r(9)-|--9-----------------9-|
|-12----12-12--------------------|------------------9---|
|--------------------------------|----------------------|
|--------------------------------|----------------------|


  B5      A5          G5   (G5)G5
  E  E  E  Q     E  E  E   +E   E  E  E  E   E  E  E
|------------------------|---------------------------|
|------------------------|---------------------------|
|------------------------|---------------------------|
|-9--9--9--7-----7--7--5-|-(5)--5--5--5--5---5--5--5-|
|-7--7--7--5-----5--5--3-|-(3)--3--3--3--3---3--3--3-|
|------------------------|---------------------------|
|
| E  E  E  E  E  E  E  E    E   E  E  E  E   E  E  E
|------------------------|---------------------------|
|------------------------|-----------------/15-15-15-|
|-9s11-11-11S12-12-12S14-|-14--14S16-16-16-----------|
|------------------------|---------------------------|
|------------------------|---------------------------|
|------------------------|---------------------------|


  G5       A5               B5   (B5) B5
   E  E  E  Q       E     E  E    +E  E E E E E   E    E
|------------------------------|----------------------------||
|------------------------------|----------------------------||
|------------------------------|----------------------------||
|--5--5--5--7-------7-----7--9-|--(9)-9-9-9-9-9---9----9----||
|--3--3--3--5-------5-----5--7-|--(7)-7-7-7-7-7---7----7----||
|------------------------------|----------------------------||
|
|                            ~~~~~~~~~
|              |---3---|                          |---3---|
|  E  E  E  E  E  E    E  E  E    +H.             E  E    E
|------------------------------|-------------------------13-||
|-15S17-17-17-17p15------15----|------------------7s13------||
|---------------------16----16-|-(16)-----------(16)--------||
|------------------------------|----------------------------||
|------------------------------|----------------------------||
|------------------------------|----------------------------||


 Guitar Solo #4 - M. Amott
  C5                              Bb5                                 Ab5
   E            E     E           Q                 E     E           E
|--------------------------------------------------------------------------|
|--------------------------------------------------------------------------|
|--------------------------------------------------------------------------|
|-10-----------10----10-----------8-----------------8-----8-----------6----|
|--8------------8-----8-----------6-----------------6-----6-----------4----|
|--------------------------------------------------------------------------|
|
|  |-------3-------|  |------3-------|  |------3-------|  |------3-------|
|  E      +E       E  E      +E      E  E      +E      E  E      +E      E
|-----------------13----------------13----------------13----------------13-|
|-16b18==(16)r-------16b18==(16)r------16b18==(16)r------16b18==(16)r------|
|--------------------------------------------------------------------------|
|--------------------------------------------------------------------------|
|--------------------------------------------------------------------------|
|--------------------------------------------------------------------------|


  (Ab5)        Ab5
  +E            E          E       E            E          E       E               E
|--------------------------------------------------------------------------------------------------|
|--------------------------------------------------------------------------------------------------|
|--------------------------------------------------------------------------------------------------|
|-(6)-----------6----------6-------6------------6----------6-------6---------------6---------------|
|-(4)-----------4----------4-------4------------4----------4-------4---------------4---------------|
|--------------------------------------------------------------------------------------------------|
|
|                                                                  |-----3------|  |-----3------|
|  S      +S    S  S      +S    S  S      +S    S  S      +S    S  S      +S    S  S      +S    S
|--------------13--------------13--------------13--------------13--------------13--------------13--|
|-16b18==(16)r----16b18==(16)r----16b18==(16)r----16b18==(16)r----16b18==(16)r----16b18==(16)r-----|
|--------------------------------------------------------------------------------------------------|
|--------------------------------------------------------------------------------------------------|
|--------------------------------------------------------------------------------------------------|
|--------------------------------------------------------------------------------------------------|


  Ab5               Bb5                           C5
   E     E     E     Q           E     E           E
|---------------------------------------------------------|
|---------------------------------------------------------|
|---------------------------------------------------------|
|--6-----6-----6-----8-----------8-----8----------10------|
|--4-----4-----4-----6-----------6-----6-----------8------|
|---------------------------------------------------------|
|
|                                      ~~~~~~~~~~~~~~~~~~~~
|  S  S  S  S  S  S  S  S  S  S  S  S  S  +E          +S
|-18-13h16p13----13-18-13h16p13----13-18-(18)b20=====(18)-|
|-------------16----------------16------------------------|
|---------------------------------------------------------|
|---------------------------------------------------------|
|---------------------------------------------------------|
|---------------------------------------------------------|


  (C5)  C5
   +E    E  E  E  E  E  E  E
|----------------------------|
|----------------------------|
|----------------------------|
|-(10)--10-10-10-10-10-10-10-|
|--(8)---8--8--8--8--8--8--8-|
|----------------------------|
|
|~~~~~~~
|  +H.                  Q
|-(18)r----------------------|
|----------------------11s===|
|----------------------------|
|----------------------------|
|----------------------------|
|----------------------------|


  C5                Bb5         Ab5 (Ab5)  Ab5
   E     E     E    Q       E E E   +E     E    E    E     E E E E
|---------------------------------|--------------------------------|
|---------------------------------|--------------------------------|
|---------------------------------|--------------------------------|
|-10----10----10----8-------8-8-6-|-(6)----6----6----6-----6-6-6-6-|
|--8-----8-----8----6-------6-6-4-|-(4)----4----4----4-----4-4-4-4-|
|---------------------------------|--------------------------------|
|
|                         ~~                               ~~
|  |---------5---------|             |--------5---------|
|  E  E     E     E    E  H          E   E    E    E    E  H
|----------15----16---18-20-------|-20--18---16---15---------------|
|-16-18---------------------------|--------------------18-16-------|
|---------------------------------|--------------------------------|
|---------------------------------|--------------------------------|
|---------------------------------|--------------------------------|
|---------------------------------|--------------------------------|


  Ab5        Bb5        C5   (C5) C5
   E     E E Q  E   E    E    +E   E  E  E  E  E  E  E
|--------------------------|---------------------------||
|--------------------------|---------------------------||
|--------------------------|---------------------------||
|--6-----6-6-8--8---8---10-|-(10)-10-10-10-10-10-10-10-||
|--4-----4-4-6--6---6----8-|--(8)--8--8--8--8--8--8--8-||
|--------------------------|---------------------------||
|
|                        ~~~~~~~~~
|  H.              +E    E    +W
|-15b18===========(15)r----|---------------------------||
|-----------------------18-|-(18)----------------------||
|--------------------------|---------------------------||
|--------------------------|---------------------------||
|--------------------------|---------------------------||
|--------------------------|---------------------------||


 Guitar Solo #5 - M. Amott
  C#5             B5              A5   (A5)A5
    E  E     E    Q    E     E     E   +E  E    E    E  E E E E
|------------------------------------|--------------------------|
|------------------------------------|--------------------------|
|------------------------------------|--------------------------|
|--11-11----11----9----9-----9-----7-|-(7)-7----7----7--7-7-7-7-|
|---9--9-----9----7----7-----7-----5-|-(5)-5----5----5--5-5-5-5-|
|------------------------------------|--------------------------|
|
|                                                       ~~
|   |-----3-----|                       |----3-----|
|   Q     q     q    E S  S  S  S  E    Q     Q    Q    H
|--------16----17---16---14h16p14----|-14-----------------------|
|-/14-----------------------------17-|-------17---14------------|
|------------------------------------|-----------------14-------|
|------------------------------------|--------------------------|
|------------------------------------|--------------------------|
|------------------------------------|--------------------------|


  A5       B5           C#5  (C#5)C#5
   E  E  E  Q      E  E  E    +E   E          E     E    E  E  E      E
|--------------------------|-----------------------------------------------|
|--------------------------|-----------------------------------------------|
|--------------------------|-----------------------------------------------|
|--7--7--7--9------9--9-11-|-(11)-11---------11----11---11-11-11-----11----|
|--5--5--5--7------7--7--9-|--(9)--9----------9-----9----9--9--9------9----|
|--------------------------|-----------------------------------------------|
|
|                                      \0.5/
|                                                   ~~~~
|                                  |------3------|
|  E  E  E  E  E   E  E  E     E   E  +E         E  Q..            S  S  S
|--------------------------|-----------------------------------------------|
|----------------/14-14-14-|--14-------------------17----------------------|
|-14S16-16-16-16-----------|------14-(14)-------14-------------------------|
|--------------------------|-----------------------------------------------|
|--------------------------|-----------------------------------------------|
|--------------------------|-------------------------------------/16-17-19-|


  C#5               B5                      A5
   E     E     E     Q           E     E     E
|-------------------------------------------------|
|-------------------------------------------------|
|-------------------------------------------------|
|-11----11----11-----9-----------9-----9-----7----|
|--9-----9-----9-----7-----------7-----7-----5----|
|-------------------------------------------------|
|
|  S  S  S  S  S  S  S  S  S  S  S  S  S  S  S  S
|-------------------------------------------------|
|-------------------------------------------------|
|-------------------------------------------------|
|----------------------------------------------18-|
|----------------------------17-19-21-17-19-21----|
|-16-17-19-17-19-21-17-19-21----------------------|


  (A5)   A5
  +E      E     E     E     E     E     E     E
|---------------------------------------------------|
|---------------------------------------------------|
|---------------------------------------------------|
|-(7)-----7-----7-----7-----7-----7-----7-----7-----|
|-(5)-----5-----5-----5-----5-----5-----5-----5-----|
|---------------------------------------------------|
|
|  S   S  S  S  S  S  S  S  S  S  S  S  S  S  S  S
|---------------------------------------------------|
|-----------------------------------17-19-21-17-19--|
|-----------------18-20-21-18-20-21-----------------|
|-19--21-18-19-21-----------------------------------|
|---------------------------------------------------|
|---------------------------------------------------|


                                              D.S.S. al Dbl. Coda
  A5                   B5        C#5  (C#5)C#5
   E     E          E  Q    E  E  E    +E   E  E  E   E    E  Q
|-----------------------------------|-----------------------------||
|-----------------------------------|-----------------------------||
|-----------------------------------|-----------------------------||
|--7-----7----------7--9----9--9-11-|-(11)-11-11-11--11---11-11\--||
|--5-----5----------5--7----7--7--9-|--(9)--9--9--9---9----9--9\--||
|-----------------------------------|-----------------------------||
|
|                                 ~~~~~~~~~~~~~~~~~~~~~~~~
|  S  S  S  S      +Q.     +Q     E    +H            +Q       Q
|----19h21-21b24==(21)----(21)r==21-|-(21)----------(21)\---------||
|-21--------------------------------|-----------------------------||
|-----------------------------------|-----------------------------||
|-----------------------------------|-----------------------------||
|-----------------------------------|-----------------------------||
|-----------------------------------|-----------------------------||


 Outro
  Q=98
  &&
  B5
  PM----| ~          ~   PM----| ~         ~
  S   T T E    E     E   S   T T E   E     E
|----------------------------------------------|
|----------------------------------------------|
|----------------------------------------------|
|-------------10-----8---------------8-----6---|
|---------7----------------------7-------------|
|-0---0-0----------------0---0-0---------------|
|
| PM--------------------------------------------
| T T S   S S  T T S S S T T S   S S T T S S S
|----------------------------------------------|
|----------------------------------------------|
|----------------------------------------------|
|----------------------------------------------|
|-2------------2---------2-----------2---------|
|-0-0-0---0-0--0-0-0-0-0-0-0-0---0-0-0-0-0-0-0-|


  B5                     E5  G5  F5  C5
  PM----| ~          ~               ~
  S   T T E    E     E   E   E   E   E
|-----------------------------------------
|-----------------------------------------
|-----------------------------------------
|-----------------------------------------
|---------7---10-----8---0---3---1--------
|-0---0-0----------------------------1----
|
|--------------------------------------|
| T T S   S S  T T S S S S S S S S S S S
|-----------------------------------------
|-----------------------------------------
|-----------------------------------------
|------------------------2---5---3--------
|-2------------2---------0-0-3-3-1-1-3----
|-0-0-0---0-0--0-0-0-0-0-------------1-1--


  B5                 (B5)       A5G5F5C5  B5           N.C.
    ~    ~   ~   ~       ~    ~ PM--------|
  E E  E E E E E E    E  E  E E E E E E   q  Q  H      W
|------------------|--------------------|------------|------*|
|------------------|--------------------|------------|------*|
|------------------|--------------------|------------|------*|
|-----10-8-----8-6-|--------------------|------------|------*|
|---7--------7-----|-----7-10-8-0-3-1---|-2----------|------*|
|-0--------0-------|--0---------------1-|-0----------|------*|
|
|                               PM--------|
| W                  +H         E E E E   q  Q  H      W
|------------------|--------------------|------------|------*|
|------------------|--------------------|------------|------*|
|------------------|--------------------|------------|------*|
|-2----------------|-(2)--------2-5-3---|------------|------*|
|-2----------------|-(2)--------0-3-1-3-|-2----------|------*|
|-0----------------|-(0)--------------1-|-0----------|------*|



Duration Legend
---------------
W - whole; H - half; Q - quarter; E - 8th; S - 16th; T - 32nd; X - 64th; a - acciaccatura
+ - note tied to previous; . - note dotted; .. - note double dotted
Uncapitalized letters represent notes that are staccato (1/2 duration)
Irregular groupings are notated above the duration line
Duration letters will always appear directly above the note/fret number it represents the
duration for.  Duration letters with no fret number below them represent rests.  Multi-
bar rests are notated in the form Wxn, where n is the number of bars to rest for.  Low
melody durations appear below the staff

Tablature Legend
----------------
 h   - hammer-on
 p   - pull-off
 b   - bend
 pb  - pre-bend
 r   - bend release (if no number after the r, then release immediately)
 /\  - slide into or out of (from/to "nowhere")
 s   - legato slide
 S   - shift slide
 - natural harmonic
[n]  - artificial harmonic
n(n) - tapped harmonic
 ~   - vibrato
 tr  - trill
 T   - tap
 TP  - trem. picking
 PM  - palm muting
\n/  - tremolo bar dip; n = amount to dip
 \n  - tremolo bar down
 n/  - tremolo bar up
/n\  - tremolo bar inverted dip
 =   - hold bend; also acts as connecting device for hammers/pulls
 <> - volume swell (louder/softer)
 x   - on rhythm slash represents muted slash
 o   - on rhythm slash represents single note slash

Misc Legend
-----------
 |  - bar
||  - double bar
||o - repeat start
o|| - repeat end
*|  - double bar (ending)
 :  - bar (freetime)
 $  - Segno
 &  - Coda
Tempo markers -  = BPM(8/16=s8/s16), where s8 = swing 8ths, s16 = swing 16ths

Tap to rate this tab
# A B C D E F G H I J K L M N O P Q R S T U V W X Y Z