Song name
# A B C D E F G H I J K L M N O P Q R S T U V W X Y Z

Arctic Monkeys - Whyd You Only Call Me When Youre High tab

Kicks in at 1:57

e|-----------------------------------------------|
B|------14-17-15-14-10-12-10-12-14---------------|
G|--11------------------------------11-14-16b-16-|
D|-----------------------------------------------|
A|-----------------------------------------------|
E|-----------------------------------------------|

e|-----------------------------------------------|
B|------14-17-15-14-10-12-10-12-14---------------|
G|----------------------------------/18-16-14----|
D|--------------------------------------------16-|
A|-----------------------------------------------|
E|-----------------------------------------------|

e|-----------------------------------------------|
B|------14-17-15-14-10-12-10-12-14---------11b---|
G|-----------------------------------/11-14----14|
D|-----------------------------------------------|
A|-----------------------------------------------|
E|-----------------------------------------------|

e|-----------------------------------------------|
B|------14-17-15-14-10-12-10-12-14----------12b--|
G|-----------------------------------/11-14------|
D|-----------------------------------------------|
A|-----------------------------------------------|
E|-----------------------------------------------|

e|-----------------------------------------------|
B|------14-17-15-14-11-12-11-12-14---------------|
G|--11-------------------------------------------| x3
D|-----------------------------------------------|
A|-----------------------------------------------|
E|-----------------------------------------------|

e|-----------------------------------------------|
B|------14-17-15-14-10-12-10-12---12b------------|
G|--11-------------------------------------------|
D|-----------------------------------------------|
A|-----------------------------------------------|
E|-----------------------------------------------|
Tap to rate this tab
# A B C D E F G H I J K L M N O P Q R S T U V W X Y Z