Song name
# A B C D E F G H I J K L M N O P Q R S T U V W X Y Z

Arctic Monkeys - Mad Sounds tab

MAD SOUNDS (As seen on Live as Best Kept Secret)
ARCTIC MONKEYS
TABBER: GIORGIOT

e--------5---------3-------------------|
b--------------------------------------|
g---3/5-------5/3----------------------|
D--------------------------------------|
A--------------------------------------|
E--------------------------------------|
Mad sounds in your ears

e--------5----6-5-----------3----------|
b--------------------------------------|
g---3/5-----5---------5/3--------------|
D--------------------------------------|
A--------------------------------------|
E--------------------------------------|
Make you feel alright 

e--3--5--6----10--8--6--5---------3----1--------1----3------3-----|
b-------------------------------3---------1------------3----------|
g--3--5--6----10--8--7--6-----3--------------2------------3-------|
D-----------------------------------------------------------------|
A-----------------------------------------------------------------|
E-----------------------------------------------------------------|
They ll bring you back to life 

e---------1----------------1-----------|
b-------1----3-----------1---3---------|
g-----2----------------2---------------|
D---3----------------3-----------------|
A--------------------------------------|
E--------------------------------------|
Mad sounds in your ears 

e---------1----------------1---1-------|
b-------1----3-----------1-----1-------|
g-----2----------------2-------2-------|
D---3----------------3---------3-------|
A------------------------------3-------|
E------------------------------1-------|
Make you get up and down, make you get up

e---------1-----------------------------|
b--3------1------3----------------------|
g--3------2------3----------------------|
D--3------3------3----------------------|
A--1------3------1----------------------|
E---------1-----------------------------|
Yeah they make you get up

 F        Bb             F             Bb
Love but I ll never stray on those wild nights 

e--10--8--6--5---------3----1--------1----3------3-----|
b--------------------3---------1------------3----------|
g--10--8--7--6-----3--------------2------------3-------|
D------------------------------------------------------|
A------------------------------------------------------|
E------------------------------------------------------|
Run but you can not hide

  F         Bb
Mad sounds in your ears
  F                     Bb 
Make you get up and down, make you get up 
  F                Bb        F
All night long and reappear make you get up and down 
  Bb
Yeah they make you get up 

F Bb
F Bb
  
 F                          Bb
Supposed you gotta do what you ve got to do 
 F                       Bb
We just won t feel how we want to
 Gm      
You sit and try some times 
                   C                      Gm
But you just can t figure out what went wrong 
  C                                                   F
But out of nowhere, somebody comes and hits with a uh la la la
  Bb 
Uh la la la 
  F          Bb
Uh la la la, uh 
  F
Uh la la la 
  Bb
Uh la la la 
  F          Bb
Uh la la la, uh 
  F                Bb
You got mad sounds in your ear
  F                         Bb 
So make you get up and dance
  F          Bb
Mad sounds in your ear
  F                      Bb
Make you get up and dance
  F                      Bb
You know they make you get over
  F                      Bb
You know they make you get over
Tap to rate this tab
 
# A B C D E F G H I J K L M N O P Q R S T U V W X Y Z