Song name
# A B C D E F G H I J K L M N O P Q R S T U V W X Y Z

Arctic Monkeys - Mad Sounds tab

A song That's Gonna Be On The New Arctic Monkeys Album "AM"

this Song made his live debout , and this is tab for you all :)

enjoy this great song!!
 
**let me know how this tab was for you , by rating it :) ***


Intro (Lead Gutiar)

e|-----------5-~---------3---|
B|---------------------------|
G|----3-s-5------5-s-3-------|
D|---------------------------|  
A|---------------------------|
E|---------------------------|

Second Time :

e|-----------5-~---6p5----5------3------|
B|--------------------------------------|
G|----3-s-5------5------5------3--------|
D|--------------------------------------|  
A|--------------------------------------|
E|--------------------------------------|


Then:

.....          They'll Bring.........Live........  
e|----3--5--6---10---8--6---5---------------------------------|
B|-----------------------------5------6------------8----------|
G|----3--5--6---10---8--6---6----6-------7-----7-----7---0----|
D|------------------------------------7-----7------8---8------|
A|------------------------------------------------------------|
E|------------------------------------------------------------|



...Mad Sounds.... .In Your Ears
e|------------1---------------------------|
B|----------1------3----------------------|
G|-------2------------3-------------------|  x3
D|----3------------------3----------------|
A|--------------------------1~~-----------|
E|----------------------------------------|

4 time :

........Make You Get Up
e|------------1--------------------------|
B|----------1---------3------------------|
G|-------2------------3------------------|
D|----3---------------3------------------|
A|--------------------1------------------|
E|---------------------------------------|



e|----1-~------------------------------------------|
B|----1-~------3-----------------------------------|
G|----2-~------3-----------------------------------|   X2
D|----3-~------3-----------------------------------|
A|----3-~------1-----------------------------------|
E|----1-~------------------------------------------|



Reapet Until The Bridge:



.....suppose..Gotta do...Tried.Figure Out..
e|----1-~-----------------3----1----------------------|
B|----1-~------3----------3----1----------------------|
G|----2-~------3---x2-----3----0----x2----------------|   
D|----3-~------3----------5----2----------------------|
A|----3-~------1----------5----3----------------------|
E|----1-~-----------------3---------------------------|



And The O-La-LaLa  Part Is The Same As 


e|----1-~------------------------------------------|
B|----1-~------3-----------------------------------|
G|----2-~------3-----------------------------------|   X2
D|----3-~------3-----------------------------------|
A|----3-~------1-----------------------------------|
E|----1-~------------------------------------------|
Tap to rate this tab
# A B C D E F G H I J K L M N O P Q R S T U V W X Y Z