Song name
# A B C D E F G H I J K L M N O P Q R S T U V W X Y Z

Arrogant Worms - The Assumption Song tab

Hullo UG world. This is my first tab, and although I don't know how YOU play this, this 
how I play this.


there was an old farmer who lived on a rock
----------2---2------2---2----5----3-2--0-|
----------3---3------3---3----3----3-3--2-|
--Z-------2---2------2---2----2----2-2--2-|
-------0----------0-----------------------|
------------------------------------------|
------------------------------------------|

he sat in a meadow just shaking his (fist) at the boys....(etc)
-------0--0-----0---0----------------------2---2------....
-------2--2-----2---2----------------------3---3------....
-------2--2-----2---2----------------------2---2------....
--------------------------------------0------------0--....
----0--------0-----------0--2----4--------------------....

Would love some feedback, sixstringdestroyer@yahoo.com
STANDARD TUNING: EADBGe
Tap to rate this tab
# A B C D E F G H I J K L M N O P Q R S T U V W X Y Z