Song name
# A B C D E F G H I J K L M N O P Q R S T U V W X Y Z

Art Of Dying - Best I Can tab

Only covering the acoustic part.

-------------------------------------------------------------------------------
		     Best I Can - Art Of Dying
-------------------------------------------------------------------------------
Tabbed by:Taibshe
Email:taibshe@gmail.com

Tuning: standard tuning

e|------7-------7------7-------7-------7------7-------7-------7-----------|
B|--------7-------7------7-------7-------7------7-------7--------7--------|
G|----4-------4------4-------4-------4-------4------4-------4-------------|
D|--6-------2--------------2-------6-------2--------------2---------------|
A|------------------2-----------------------------2-----------------------|
E|------------------------------------------------------------------------|

and repeat this for 5 minutes =)
enjoy
Tap to rate this tab
 
# A B C D E F G H I J K L M N O P Q R S T U V W X Y Z