Song name
# A B C D E F G H I J K L M N O P Q R S T U V W X Y Z

As Cities Burn - Contact tab

One of my favorite guitar riffs, starts a second or two after "do you have clouds that 
His voice.." at around 3:40

Tuning is a half step down if you wana sound just like the song, it's still fun to play 
way. sounds best with neck pick-up.

p=Pull off
h=hammer
/=slide
~=let it ring


e-----------------------------------------------|
b-----14p0--12p0--------------------------------|
g----------------13-----------------------------|
d---11--------------11-----11---7--7------------|
a-0-----------------12h14--14---9--7------------|
E------------------------------------9----------|

e----------------------------------------0~--0----------------------|
b-----14p0--12p0-------------------------0~----0--------------------|
g----------------13----------------------8~--------8/9/8/9--11/13~--|
d---11--------------11-----11---7--7--7--9~--------6/7/6/7---9/11~--|
a-0-----------------12h14--14---9--7--9-----------------------------|
E-------------------------------------------------------------------|

e-----------------------------------------------|
b-----14p0--12p0--------------------------------|
g----------------13-----------------------------|
d---11--------------11-----11---7--7------------|
a-0-----------------12h14--14---9--7------------|
E------------------------------------9----------|


e----------------------------------------0~--0-------------------0----|God,
b-----14p0--12p0-------------------------0~----0-----------------2----|this
g----------------13----------------------8~------8----------1h4--1----|can't
d---11--------------11-----11---7--7--7--9~--------9----2h4------2----|be...."
a-0-----------------12h14--14---9--7--9-------------------------------|
E---------------------------------------------------------------------|

i'll also add the other climactic solo toward the end of the song. beautiful.

right after .. "God does grace reach to this side of madness? cause I know this can't be 
great peace we all seek.." at 4:39ish

e--0----0-0-0-0-------------------------------0------------0---0-0-0-0-0-0-|
b--5/7--7-7-7-7-7p5-----4---------------------7p5-----4h5--7/9-9-9-9-9-9-9-|
g-------------------4/6---6--------4--------------4h6----------------------|
d---------------------------6--4h6---6p4/2---------------------------------|
a------------------------------------------2-------------------------------|
E--------------------------------------------------------------------------|


e-------------------------------0-------0---0-0-0-0-0-0-|
b--7p5-----4--------------------7/5-----5/7-7-7-7-7-7-7-|
g------4/6---6--------4-------------4/6-----------------|
d--------------6--4h6---6p4/2---------------------------|
a-----------------------------2-------------------------|
E-------------------------------------------------------|


e-------------------------------0----------------------|
b--7p5-----4--------------------7/5------------5-7-9-7-|
g------4/6---6--------4-------------6/8----4-6---------|
d--------------6--4h6---6p4/2------------6-------------|
a-----------------------------2------------------------|
E------------------------------------------------------|


e----------------------------------------------------------------------|
b--7-7-7-5--5-5-5-2--2-2-2---------------------------------------------|
g-------------------------4--4-4-4-4-4-4---1h4p1-----------------------|
d------------------------------------------------2/4-4p2---------------|
a--------------------------------------------------------4-------------|
E----------------------------------------------------------4-4-4-4-4-4-|


e----------------0~-|
b-------2-4------4~-|
g---1-4-----1-1--1~-|
d-4-----------------|
a-------------------|
E-------------------|


R.I.P., A.C.B.
Tap to rate this tab
# A B C D E F G H I J K L M N O P Q R S T U V W X Y Z