Guitaretab - guitar tabs
Song name
# A B C D E F G H I J K L M N O P Q R S T U V W X Y Z
Home / A / Atreyu / Visions tab

Atreyu - Visions tab

Hey Everyone I'm a HUGE Atreyu Phan, Thought I'd tab out one of there old songs " Who 
" ... Btw this is my First Tab But I know it's right bcuz i taught myself ... Tuneing Btw 
Drop D ... E, B, G, D, A, D.
* This song CAN be played one Guitar ....

 * - Palm Mute
 B - Bend


Intro on Guitar 1  ( x4 )

E[---------------------------------]
B[---------------------------------]
jh----------4-------------4--------]
D[-----2--2--------------2---------]
A[---3--3------3-3---2--2---22-----]
D[------------------2--2-----------]

 Riff 1 ( Both Guitars )  < x2 >

E[----------------------------------------------------------]
B[----------------------------------------------------------]
G[--5-5-5-5-5-5----2-2-2-2-2-2----5-5-5-5-5-5---------------]
D[--5-5-5-5-5-5----2-2-2-2-2-2----5-5-5-5-5-5----2-2-2-2-2-2]
A[--3-3-3-3-3-3----2-2-2-2-2-2----3-3-3-3-3-3----2-2-2-2-2-2]
D[-----------------2-2-2-2-2-2-------------------2-2-2-2-2-2]

 Then After That,

 Riff 2 But Palm Muted ....  < x3 > <--------

[ Tab from: http://www.guitaretab.com/a/atreyu/151787.html ]
E[----------------------------------------------------------]
B[----------------------------------------------------------]
G[--5-5-5-5-5-5----2-2-2-2-2-2----5-5-5-5-5-5---------------]
D[--5-5-5-5-5-5----2-2-2-2-2-2----5-5-5-5-5-5----2-2-2-2-2-2]
A[--3-3-3-3-3-3----2-2-2-2-2-2----3-3-3-3-3-3----2-2-2-2-2-2]
D[-----------------2-2-2-2-2-2-------------------2-2-2-2-2-2]
      * * * * *    * * * * * *    * * * * * *    * * * * * *

 Chorus, Pretty Fast part so be Ready .... ----. X4!

E[-----------------------------------------]
B[-----------------------------------------]
G[------------5-5--4-4--------------7-5-4-5]
D[--2-2-2-2---5-5--4-4----5-5-5-5---7-5-4-5]
A[--2-2-2-2---3-3--2-2----5-5-5-5---5-3-2-3]
D[--2-2-2-2---------------5-5-5-5----------]

 Then Riff 2 Again ....
 Then Chorus ....

 THEN .... Heavy Riff, Not much Distortion ( Palm Muted )

E[--------------------------------]
B[--------------------------------]
G[-------------------------------B]
D[-2-2---2-2-2-2---2-2---2-2-2-2-3]
A[-2-2---2-2-2-2---2-2---2-2-2-2-3]
D[-2-2---2-2-2-2---2-2---2-2-2-2-3]
   * *   * * * *   * *   * * * *

E[----------------------------------]
B[----------------------------------]
G[----------5-5--4-----------7--4--5]
D[--2-2-2---3-3--4---5-5-5---5--4--5]
A[--2-2-2---3-3--2---5-5-5---5--2--3]
D[--2-2-2------------5-5-5----------]

 Then Chorus Again ...

 End on This ....

E[--------]
B[--------]
G[--------]
D[--2-----]
A[--2-----]
D[--2-----]

     The End ....
  It's a Fairly simple song To Learn if you're just starting Out ... Just take your time 
put some life into it...Hell, maybe even solos if you feel the music ... But Thanks 
some fun

 Order of the Song

Intro
Riff 1
Riff 2
Chrous
Riff 2
Chrous
Heavy Riff
Ending ....

   Tabbed By Ryan Kiely myspace.com/extrememetalheal9 ... Add me pce guys
 Spread the (sic)ness
Related for Visions tab