Song name
# A B C D E F G H I J K L M N O P Q R S T U V W X Y Z

Atreyu - Lip Gloss And Black tab

Okay, I've looked Hard and Long, and still not seen the correct solo on ultimate guitar.
here you all go.

Tuning - CGCFAD

Legend:
P = pull off
h=hammer on

thats all you need to get started.

Guitar One (rhythm)
solo intro
|---------------------------------------------------------|
|---------------------------------------------------------|
|-14-17-15-14-14h15h14------------------------------------|
|----------------------15---------------------------------|
|-------------------------15--14h15-15-15h16-16-----------|
|---------------------------------------------------------|

Solo
|---------------------------------------------------------|
|---------------------------------------------------------|
|-------------17----------15----------14------------------|
|-17-15-14-15----15-14-15----15-14-15----15-14-15---------|
|---------------------------------------------------------|
|---------------------------------------------------------|

|---------------------------------------------------------|
|---------------------------------------------------------|
|-------------17-------15-------14------------------------|
|-17-15-14-15----15-14----15-14----15-17-15-14-15---------|
|---------------------------------------------------------|
|---------------------------------------------------------|

this is repeated again while the second guitar plays.

the next section is played double hand tapping, and is very simple to do when you get
hang of it. Place the index and middle finger of your  fretting hand on the 12th and 13th
of the D string (normally E, but downtuned). then play the rest of the notes with your 
hand by tapping with your plec (or finger)


Guitar 2 (Lead)

|-15p13p12h13h20p13p12h13h18p13p12h13h17p13p12h13---------|
|---------------------------------------------------------|
|---------------------------------------------------------|
|---------------------------------------------------------|
|---------------------------------------------------------|
|---------------------------------------------------------|

|-15p13p12h13h20p13p12h18p13p12h17p13p12h13p12h12---------|
|---------------------------------------------------------|
|---------------------------------------------------------|
|---------------------------------------------------------|
|---------------------------------------------------------|
|---------------------------------------------------------|


|-15p13p12h13h20p13p12h13h18p13p12h13h17p13p12h13---------|
|---------------------------------------------------------|
|---------------------------------------------------------|
|---------------------------------------------------------|
|---------------------------------------------------------|
|---------------------------------------------------------|

|-15p13p12h13h20p13p12h18p13p12h17p13h15p13p12h13h15p12---|
|---------------------------------------------------------|
|---------------------------------------------------------|
|---------------------------------------------------------|
|---------------------------------------------------------|
|---------------------------------------------------------|

let the 12 ring, and you're all done.

I realise you can play the first bit (rhythm) on the A and D strings, but if you're
this as a single guitarist with a pedal, it's easier to go from one string to another than
up the neck.

This can alternatively be played similar to the first part (rhythm) but on the A and D
as such:

|-------------20----------18----------17------------------|
|-20-18-17-18----18-17-18----18-17-18----18-17-18---------|
|---------------------------------------------------------|
|---------------------------------------------------------|
|---------------------------------------------------------|
|---------------------------------------------------------|

|-------------20--------18--------17----------------------|
|-20-18-17-18----18-17-----18-17-----17-18-17-18----------|
|---------------------------------------------------------|
|---------------------------------------------------------|
|---------------------------------------------------------|
|---------------------------------------------------------|

|-------------20----------18----------17------------------|
|-20-18-17-18----18-17-18----18-17-18----18-17-18---------|
|---------------------------------------------------------|
|---------------------------------------------------------|
|---------------------------------------------------------|
|---------------------------------------------------------|

|-------------20--------18--------17----------------------|
|-20-18-17-18----18-17-----18-17-----18-20-18-17-17h18p17-|
|---------------------------------------------------------|
|---------------------------------------------------------|
|---------------------------------------------------------|
|---------------------------------------------------------|

well there you go, have fun
Tap to rate this tab
# A B C D E F G H I J K L M N O P Q R S T U V W X Y Z