Song name
# A B C D E F G H I J K L M N O P Q R S T U V W X Y Z

Atreyu - Right Side Of The Bed tab

Right Side Of The Bed 
Atreyu
Tabbed By Allen Jernigan

Tuning: CGCFAD
Drop C

Intro  (Repeat Twice)
D----------------------------------------------------|
A----------------------------------------------------|
F----------7-5----3-3-5-5----------7-5---10-10-------|
C--00-0-0--7-5--0-3-3-5-5--00-0-0--7-5-0-10-10-8-8---|
G--00-0-0--5-5--0-1-1-3-3--00-0-0--5-5-0-8--8--8-8---|
C--00-0-0-------0----------00-0-0------0-------8-8---|

Second Time Guitar 1 Does
D--------------------------------------------|
A--------------------------------------------|
F----------7-5----/12----10----9----10--9----|
C--00-0-0--7-5--0-------------------------10-|
G--00-0-0--5-5--0----------------------------|
C--00-0-0-------0----------------------------|

Then
Guitar 1
D--------------------------------------------------|
A--------------------------------------------------|
F-----2--------------------------------------------|
C-----2----2----3p2---3*----2---5p3-2--0-----------|
G-----0--0---0------3-----0---0--------0-----------|
C--------------------------------------0-----------|

Guitar 2
D-------------------------|
A-------------------------|
F--2------------------3---|
C--2------------------3---|
G--0------------------1---|
C-------------------------|


Verse Part 1 (Both)
D---------------------------|
A---------------------------|
F----------------3-3--------|
C--0-0----0-0----3-3--3-3---|
G--0-0----0-0----1-1--3-3---|
C--0-0----0-0---------3-3---|

Verse Part 2 
D------------------------------------------------|
A------------------------------------------------|
F------------------------------------------------|
C--0---------0----3p2---0----------5-5-3-2-0-----|
G--0--3-3h5--0--3----3--0--3-3h5p3---------0-----|
C--0---------0----------0------------------0-----|

Chorus   Guitar 1
D-------------------|        |------------------|
A-------------------|        |------------------|
F-------------------|   or   |----------3---5---|
C--0---3---10--10---|        |--0---3---3---5---|
G--0---3---8---10---|        |--0---3---1---3---|
C--0---3---8---10---|        |--0---3-----------|

Guitar 2 (Played With Chords During Chorus)
Its Easy To Hear But Hard To Hear The Pattern
D----------------------------|------------------------|--------------------|
A----------------------------|------------------------|--------------------|
F--14--14---14---14--15--14--|-14--14---14--15----17--|-17--15--14--15--14-|
C----------------------------|------------------------|--------------------|
G--12--12---12---12--13--12--|-12--12---12--13----15--|-15--13--12--13--12-|
C----------------------------|------------------------|--------------------|

D-------------------------|------------------------------|
A-------------------------|------------------------------|
F--14--12--10----12----14-|--10--10--10--10--10--10--10--|
C-------------------------|------------------------------|
G--12--10---8----10----12-|---8---8---8---8---8---8---8--|
C-------------------------|------------------------------|

D----------------------------|------------------|----------------------|
A----------------------------|------------------|----------------------|
F--10--10--10--10--12----10--|-9----7----5----5-|-5--5--5--5--5--5--14-|
C----------------------------|------------------|----------------------|
G---8---8---8---8--10-----8--|-7----5----3----3-|-3--3--3--3--3--3--12-|
C----------------------------|------------------|----------------------|

D---------------------------|----------------------|-----------------------|
A---------------------------|----------------------|-----------------------|
F--14--14----14--14--15--14-|-14--14---14--15---17-|-17--17---17--19----17-|
C---------------------------|----------------------|-----------------------|
G--12--12----12--12--13--12-|-12--12---12--13---15-|-15--15---15--17----15-|
C---------------------------|----------------------|-----------------------|

D-----------------------|-----------------------------|
A-----------------------|-----------------------------|
F--15----14----12----15-|--10--10--10--10--10--10--10-|
C-----------------------|-----------------------------|
G--13----12----10----13-|---8---8---8---8---8---8---8-|
C-----------------------|-----------------------------|

|---------------------------|------------------|----------------------|
|---------------------------|------------------|----------------------|
|--10--10--10--10--12----10-|-9----7----5----5-|-5--5--5--5--5--5-----|
|---------------------------|------------------|----------------------|
|---8---8---8---8--10-----8-|-7----5----3----3-|-3--3--3--3--3--3--00-|
|---------------------------|------------------|-------------------00-|

Then
Guitar 1
D--------------------------------------------------|
A--------------------------------------------------|
F-----2--------------------------------------------|
C-----2----2----3p2---3*----2---5p3-2--0-----------|
G-----0--0---0------3-----0---0--------0-----------|
C--------------------------------------0-----------|

Guitar 2
D-------------------------|
A-------------------------|
F--2------------------3---|
C--2------------------3---|
G--0------------------1---|
C-------------------------|


Verse Part 1 (Both)
D---------------------------|
A---------------------------|
F----------------3-3--------|
C--0-0----0-0----3-3--3-3---|
G--0-0----0-0----1-1--3-3---|
C--0-0----0-0---------3-3---|

Verse Part 2 
D------------------------------------------------|
A------------------------------------------------|
F------------------------------------------------|
C--0---------0----3p2---0----------5-5-3-2-0-----|
G--0--3-3h5--0--3----3--0--3-3h5p3---------0-----|
C--0---------0----------0------------------0-----|

Repeat Chorus

Then Bridge
    (Let Ring Then)
D-----|----------------------------------|---------------------------------|
A-----|----------------------------------|---------------------------------|
F--9--|--10--10--10--10--10--10--10--10--|--10--10--10--10--10--12--12--12-|
C-----|----------------------------------|---------------------------------|
G--7--|---8---8---8---8---8---8---8---8--|---8---8---8---8---8--10--10--10-|
C-----|----------------------------------|---------------------------------|

|--------------------------|------------------------|
|--------------------------|------------------------|
|--9--9--9--9--9--9--9--9--|-9--9--9--9--9--9--9--9-|
|--------------------------|------------------------|
|--7--7--7--7--7--7--7--7--|-7--7--7--7--7--7--7--7-|
|--------------------------|------------------------|

|---------------------------------|------------------------|
|---------------------------------|------------------------|
|--10--10--10--10--10--10--10--10-|-9--9--9--9--9--9--9--9-|
|---------------------------------|------------------------|
|---8---8---8---8---8---8---8---8-|-7--7--7--7--7--7--7--7-|
|---------------------------------|------------------------|

|-------------------------|------------------------|
|-------------------------|------------------------|
|--7--7--7--7--7--7--7--7-|-7--7--7--7--7--7--7--7-|
|-------------------------|------------------------|
|--5--5--5--5--5--5--5--5-|-5--5--5--5--5--5--5--5-|
|-------------------------|------------------------|

|---------------------------------|--------------------------------|
|---------------------------------|--------------------------------|
|--10--10--10--10--10--10--10--10-|-10--10--10--10--10--14--14--14-|
|---------------------------------|--------------------------------|
|---8---8---8---8---8---8---8---8-|--8---8---8---8---8--12--12--12-|
|---------------------------------|--------------------------------|

|---------------------------------|---------------------------------|
|---------------------------------|---------------------------------|
|--14--15--12--12--12--12--12--12-|-12--12--12--12--12--12--12--12--|
|---------------------------------|---------------------------------|
|--12--13--10--10--10--10--10--10-|-10--10--10--10--10--10--10--10--|
|---------------------------------|---------------------------------|

Part Before Solo
C----------------------------------|-----|
A----------------------------------|-----|
F---777--5--3--------------3---5---|-2-3-|
C---777--5--3--3-2--000----3---5---|-2-3-|
D---555--3--1--3-2--000----1---3---|-0-1-|
C--------------3-2--000------------|-----|

Solo

Repeat Intro Then Chorus
Tap to rate this tab
# A B C D E F G H I J K L M N O P Q R S T U V W X Y Z