Song name
# A B C D E F G H I J K L M N O P Q R S T U V W X Y Z

Atreyu - Insatiable tab

/---------------------------Insatiable                             
                                     
/-----------------------------Atreyu                                
                                      
/-------------------Congregation of the damned     

                    
                      *LEAD GUITAR (DAN JACOBS)*
        
|-------------------------|
|-------------------------|
|-------------------------|
|-----------------13-12---|
|---10-8-8/11-10--------13|
|-8-----------------------|x4

|-----------------------|
|-----------------------|
|------------------8-7--|
|----------------------8|
|---10--8--11--10-------|
|-88--88-88--88---------|x2

|-------------------------------------------------|
|-------------------------------------------------|
|------------------7/10-101010101010-8-8-7--7-7---|
|8/10-101010101010------------------------------8~|
|-------------------------------------------------|
|-------------------------------------------------|

|------------------------------------------------|
|------------------------------------------6-6-8~|
|------------------7/10-101010101010-8-8-7-------|
|8/10-101010101010-------------------------------|
|------------------------------------------------|
|------------------------------------------------|


                *RHYTHM GUITAR (TRAVIS MIGUEL)* 

(with special effects)
|---------------------------|
|---------------------------|
|---------------------------|
|-10-10-10-10-10-10-10-10-10|
|-10-10-10-10-10-10-10-10-10|
|--8--8--8--8--8--8--8--8--8|x4

|---------------------------|
|---------------------------|
|---------------------------|
|----10-8--11--10-1010101010|
|----10-8--11--10-1010101010|
|-88--88-88--88----8-8-8-8-8|x2

|--------------------------------------------------|
|--------------------------------------------------|
|-------------------7/-8--8-8-8-8-8-8--8-8-7--7-7--|
|-8/10-101010101010-8/10-101010101010-------------8|
|-8/10-101010101010--------------------------------|
|--------------------------------------------------|

|--------------------------------------------------|
|---------------------------------------------6-6-8|
|-------------------7/-8--8-8-8-8-8-8--8-8-7-------|
|-8/10-101010101010-8/10-101010101010--------------|
|-8/10-101010101010--------------------------------|
|--------------------------------------------------|

                                       
Tap to rate this tab
# A B C D E F G H I J K L M N O P Q R S T U V W X Y Z