Song name
# A B C D E F G H I J K L M N O P Q R S T U V W X Y Z

Audio Adrenaline - Im Alive tab

I'm Alive
Audio Adrenaline
Lift

Okay, the intro goes like this...


e-----------------------------------|
b-----------------------------------|
g-----------------------------------|
d-----------------------------------|
a--0-0-0-0-0-0-0-0-0-0-0-0-0-0-0-0--|
e--5-5-5-5-5-5-5-5-5-5-5-5-5-5-5-5--|

After that, there are two guitar parts playing at the same time

chords:
       D           C      A
e---------------------------------|
b---------------------------------|
g-----7--7--7------5--------------|
d-----7--7--7------5------7--7----|
a-----5--5--5------3------7--7----|
e-------------------------5--5----|

simple lead:
e-------------------------|
b---3--h5--3--------------|
g--------------5---2--2---|
d-------------------------|
a-------------------------|
e-------------------------|

That's the intro to this song.  It's pretty easy, so have fun with it.  If
I made any mistakes, just work it out yourself, but I'm pretty sure I got
it right.
Tap to rate this tab
# A B C D E F G H I J K L M N O P Q R S T U V W X Y Z