Song name
# A B C D E F G H I J K L M N O P Q R S T U V W X Y Z

Audio Adrenaline - Bag Lady tab

Help us improve GuitareTab! Take a short survey!
Sng: Bag Lady
Artist: Audio Adrenaline
Album: Bloom
Drop D Tuning (DADGBE)

[Intro]
e|--------------------------------------------------------------|
B|--------------------------------------------------------------|
G|-7--777--777--5--555--555--4--444--444--5--555----------------|
D|------------------------------------------------0--3--0--3/5--|
A|-5--555--555--3--333--333--2--222--222--3--333--0--3--0--3/5--|
D|------------------------------------------------0--3--0--3/5--|

[Fill 1]              [Fill 2]
e|--------------|     e|----------------|
B|--------------|     B|----------------|
G|--------------|     G|----------------|
D|--------------|     D|--0--3--0--3/5--|
A|--3--2--3--5--|     A|--0--3--0--3/5--|
D|--------------|     D|--0--3--0--3/5--|

[Verse]  (put fingers in position of a D)
                                    *
e|----2-------2-------2-------2-----2-----2------2------2-------|
B|--3-------3-------3-------3-------3---3---3--3---3--3---3-----|
G|------2-------2-------2-------2---2---------------------------|
D|--------------------------------------------------------------|
A|--------------------------------------------------------------|
D|--------------------------------------------------------------|

[Chorus]
e|-------------------------|
B|-------------------------|
G|--3---2---5---7---4---5--|
D|--3---2---5---7---4---5--|
A|--5---0---3---5---2---3--|
D|--x---x---x---x---x---x--|


[Verse1]
D
Flea bitten bag lady once you looked fine you had a family
D                        *
you loved just like mine second hand clothing and knots in
D
your hair tonight you might die but would anyone care

D
sweet little lady soul is worth gold dont believe all the
D                     *
lies you've been told I have a friend a friend indeed comes
D                [fill 1]
to the rescue of damsels in need



[Chorus]
D                    A           C    D
Friend and father repair their souls make them feel wanted,
B                C
make them feel whole.
[Fill 2]

[Verse2]
D
Young daddys daughter with child on the way made a mistake
D              *
but thats okay life is the most precious choice of them all
D                        [fill 1]
just cry on my shoulder and ill give a call

[Chorus 2]
D                    A           C    D
Friend and father repair their souls make them feel wanted,
B                C
make them feel whole.

[Solo]

e|-------------------|
B|-------------------|
G|-------------------|
D|--0--3--0--3/5--5--| 2x
A|--0--3--0--3/5--5--|
D|--0--3--0--3/5--5--|


[Guitar2]
e|-------------------------------------------------------------------------|
B|-------------------------------------------------------------------------|
G|--10b--10--12b--12--7b--6--7--6--7--6--7--7--10b--10--10--12b--12--12--12|
D|-------------------------------------------------------------------------|
A|-------------------------------------------------------------------------|
D|-------------------------------------------------------------------------|
[Guitar1]     (these two are played on top of each other)
e|-------------------|
B|-------------------|
G|-------------------|
D|--0--3--0--3/5--5--|  6x
A|--0--3--0--3/5--5--|
D|--0--3--0--3/5--5--|


[Guitar2]
e|---------------------------------------------------------------|
B|---------------------------------------------------------------|
G|--9b--7--7--7--9b--5--5--5--9b--4--4--4--9b--5--5--6--5--7--8--|
D|---------------------------------------------------------------|
A|---------------------------------------------------------------|
D|---------------------------------------------------------------|
[Guitar1]  (these two are played on top of each other) * correct timing
e|-----------------------------------------------------------------|
B|-----------------------------------------------------------------|
G|--7--777--777--5--555--555--4--444--444--5--555------------------|
D|---------------------------------------------------0--3--0--3/5--|
A|--5--555--555--3--333--333--2--222--222--3--333----0--3--0--3/5--|
D|---------------------------------------------------0--3--0--3/5--|


[Guitar2]
e|--------------------------------------------------------|
B|--------------------------------------------------------|
G|--9b--7----------9b--5--5--5--9b--4--4--4--9b--5--5--5--|
D|---------7b--8b-----------------------------------------|
A|--------------------------------------------------------|
D|--------------------------------------------------------|
[Guitar1]  (these two are played on top of each other) * correct timing
e|------------------------------------------------------|
B|------------------------------------------------------|
G|--7--777--777----5--555--555--4--444--444--5--555--555|
D|------------------------------------------------------|
A|--5--555--555----3--333--333--2--222--222--3--333--333|
D|------------------------------------------------------|

[Chorus 2]

[Intro]
Related for Bag Lady tab