Song name
# A B C D E F G H I J K L M N O P Q R S T U V W X Y Z

August Burns Red - Marianas Trench tab

so basically i sat down for a bit and tried to figure this out as much as i can....... lol

n dare i say that this is my first tab

pretty much good luck figuring out the rhythm and look at this tab as more of a 
becuase there are some parts i have no clue on.....if i  were to say this would be  93% complete

------------------------0----0----0------8-5---------|
------10-------10-----6--6-6--6-6--6-4h5-------------|
---10---10--10---10----7----7----7-------------------|
--8--8-----8--8------0----0----0---------------------|
-----------------------------------------------------|
-----------------------------------------------------|


-----------------------------------------------------|
-----------------------------------------------------|
--77777777-1010101010-1414141414-1212121212----------| (on last measure play 18)
-----------------------------------------------------|
-----------------------------------------------------|
-----------------------------------------------------|

that pretty much goes on for a bit

i dont even know the transition and this sounds sketchy so play with it

------------------------------------------------------------|
------------------------------------------------------------|
-------------------------------------------------5h7p5p0----|
-------------------------------5h8p5p0---5h7p5p0------------|
--5h8p5p0--0-000--5h7p5p0--00----------0--------------------|
-----------0-000-----------00----------0--------------------|

------------------------------------------------------------|
------------------------------------------------------------|
------------------------------------------------------------|
-------------------------------5h8p5p0---5h7p5p0------------|
--5h8p5p0--0-000--5h7p5p0--00----------0---------5h7p5p0----|
-----------0-000-----------00----------0--------------------|

goes on something like that but not exactly....i cant figure it out because i just dont 
like taking the time, maybe u can

on this part you play the open notes palm muted a couple times maybe 8 times but u 
it out
-----------------------------------------------------|
-----------------------------------------------------|
-------------------------------7---------------------|
---------------------------------8-5-7---5-----------|
-0-0000000--5h8p5p0-0-0000000----------8---7---------|
-0-0000000----------0-0000000------------------------|


-----------------------------------------------------|
-----------------------------------------------------|
-----------------------------------------------------|
-----------------------------------------------------|
-0-0000000--5h8p5p0-0-0000000---888-4-2-0~-----------|
-0-0000000----------0-0000000---888-4-2-0~-----------|

play that twice but instead of going down 4 2 0 at the end (lol) u just go 888-4-6-8 on 
C and G strings.... again u will have to use ur own mind on this one to figure it out.

Alternative picking all day (insert palm muting as necessary)
-----------------------------------------------------------|
-----------------------------------------------------------|
--------------------------------------------10-------------|
--------10------------10h11p8---------10-11----11-10h11p8--|
-8---11----11--8---11----------8---11----------------------|
-8--8--8--8----8--8--8---------8--8--8--8--8--8--8---------|x2

------------------------|
------------------------|
----------6-------------|
----8-6-8---8-6h8p4-----|
-4----------------------|
-4-4-4-4-4-4-4----------|x2

-----------------------------------------------------------|
-----------------------------------------------------------|
--------------------------------------------10-------------|
--------10------------10h11p8---------10-11----11-10h11p8--|
-8---11----11--8---11----------8---11----------------------|
-8--8--8--8----8--8--8---------8--8--8--8--8--8--8---------|x2

------------------------|
------------------------|
----------6-------------|
----8-6-8---8-6h8p4-----|
-4----------------------|
-4-4-4-4-4-4-4----------|x2

-----------------------------------------------------|
-----------------------------------------------------|
----------------------------3-3-6\-------------------|
----3-4-1-------------3-4-1--------------------------|
-1--------4-4-4p1--1---------------------------------|
-1-1-1-1-1-1-1-----1-1-1-1-1-1-1---------------------|


ya i have like half the solo.....

----------------------16----16--------------------------------------|
----------11-14h16h17----14----13h14p11--13h14p11--13h14p11-11-9----|
--------------------------------------------------------------------|
--6~----------------------------------------------------------------|
-----1\4------------------------------------------------------------|
--------------------------------------------------------------------|

from here i just play the chords n they go something like this

-----------------------------------------------------|
-----------------------------------------------------|
-----------------------------------------------------|
-10-6------------------------------------------------|
-8--4------------------------------------------------|
-8--4------------------------------------------------|

-----------------------------------------------------|
------------------------------------6-6-7p6----------|
--------------------5h6h8-------5-6---------6--------|
-------10--------6------------6----------------------|
-8--11----11--3------------4-------------------------|
-8-8--8--8----3-3-3--------4-4-4-4-4-4---------------|x2

-----------------------------------------------------|
-----------------------------------------------------|
-10-5-6-10-5-6--10~~~~~~~~~~~------------------------|
-x--x-x-x--x-x--x~~~~~~~~~~~~------------------------|
-8--3-4-8--3-4--8~~~~~~~~~~~~------------------------|
-----------------------------------------------------|\

-----------------------------------------------------|
-----------------------------------------------------|
-------------------------------------6h8p6-----------|
---------------------------------6h8-----------------|
-6h8------6h8--------6h8-----6h8---------------------|
-6h8-8888-6h8-88888--6h8-888-------------------------|

-----------------------------------------------------|
-----------------------------------------------------|
-----------------------------------------------------|
-----------------------------------------------------|
-6h8------6h8--------44-44---------------------------|
-6h8-8888-6h8-88888--44-44---------------------------|

-----------------------------------------------------|
-----------------------------------------------------|
-------------------------------------6h8p6-----------|
---------------------------------6h8-----------------|
-6h8------6h8--------6h8-----6h8---------------------|
-6h8-8888-6h8-88888--6h8-888-------------------------|

-----------------------------------------------------|
-----------------------------------------------------|
---------------------------6-------------------------|
---------------------------6-------------------------|
-6h8------6h8--------44-44-4-------------------------|
-6h8-8888-6h8-88888--44-44---------------------------|

-----------------------------------------------------|
-----------------------------------------------------|
-------------------------------------6h8p6-----------|
---------------------------------6h8-----------------|
-6h8------6h8--------6h8-----6h8---------------------|
-6h8-8888-6h8-88888--6h8-888-------------------------|

-----------------------------------------------------|
-----------------------------------------------------|
---------------------------6-------------------------|
---------------------------6-6-----------------------|
-6h8------6h8--------44-44-4-6-----------------------|
-6h8-8888-6h8-88888--44-44---6-----------------------|

and then you pretty much go.......

-----------------------------------------------------|
-----------------------------------------------------|
-------------------------------------6h8p6-----------|
---------------------------------6h8-----------------|
-6h8------6h8--------6h8-----6h8---------------------|
-6h8-8888-6h8-88888--6h8-888-------------------------|

-----------------------------------------------------|
-----------------------------------------------------|
---------------------------6-------------------------|
---------------------------6-6-----------------------|
-6h8------6h8--------44-44-4-6-----------------------|
-6h8-8888-6h8-88888--44-44---6-----------------------|

until the song ends

ya thats pretty much all i got on this one. i hope it helps someone figure out the rest 
the song n helps all yall without guitar pro.

enjoy.

B
Tap to rate this tab
 
# A B C D E F G H I J K L M N O P Q R S T U V W X Y Z