Song name
# A B C D E F G H I J K L M N O P Q R S T U V W X Y Z

Avenged Sevenfold - Shepherd Of Fire tab

Tabbed by: Connor Ford

Band:  Avenged Sevenfold
Song:  Shepherd of Fire
Album: Hail To The King (2013)


Tuning: Drop D (D, A, D, G, B, E)
(Tune the low down 1 step)


The solo still hadnít been tabbed so I thought Iíd do it to help out

Please rate, comment, correct, anything that will help :)


Hammer on:        h
Pull off:         p
Slide up:         /
Slide down:       \
Bend up:          BU(?)
Vibrato:          ~~~
Dive Bomb:        DB
Tremolo Pick:     Tr---

Guitar 1: Synyster Gates (Lead)
Guitar 2: Zachy Vengeance (Rhythm)
Guitar 3: Syn (Additional Lead)
Guitar 4: Syn (Additional Harmony Lead)

Solo Rhythm part 1
Guitar 2
||---------------------------------||
|o---------------------------------o|
||---------------------------------||
||-0---------------8---8---5---5---|| x4
|o-0---------------8---8---5---5---o|
||-0-----0000000---8---8---5---5---||

Solo part 1

Guitar 1
|-15BU(17)(15)(17)~~~~-13h15p13-|
|-------------------------------|
|-------------------------------|
|-------------------------------|
|-------------------------------|
|-------------------------------|

|-----13-17-13-17-13----13-16-13-16-13----13-15-13-15-13---13-|
|---15---------------15----------------15----------------15---|
|-14----------------------------------------------------------|
|-------------------------------------------------------------|
|-------------------------------------------------------------|
|-------------------------------------------------------------|

|-13-10-13-10----10-12-10-12-10----------------------|
|-------------10----------------10-------------------|
|----------------------------------10-13~~~~~~~~~~~~-|
|----------------------------------------------------|
|----------------------------------------------------|
|----------------------------------------------------|

|-------------------------------------------------------------------|
|-13BU(15)~~~~-10-----------------------------15BU(17)~~~~-13h15p13-|
|-----------------12-10-12BU(14)~~~~-10h12p10-----------------------|
|-------------------------------------------------------------------|
|-------------------------------------------------------------------|
|-------------------------------------------------------------------|

|-15BU(17)~~-(15)(17)~~~~~~-|
|---------------------------|
|---------------------------|
|---------------------------|
|---------------------------|
|---------------------------|

|---------------------------------------------------------------------------------------|
|-18-18-18-15-15-15-17-17-17-18-18-18---------------------------------------------------|
|-------------------------------------17-17-17-13-13-13-17-17-17------------------------|
|----------------------------------------------------------------15-15-15-17---18~~-----|
|---------------------------------------------------------------------------------------|
|---------------------------------------------------------------------------------------|

|-----------5h10p5-------------------------10h15p13p10----10-|
|---------6--------6--------------------10-------------13----|
|-------7------------7---------------10----------------------|
|-----7----------------7-------10-12-------------------------|
|-5-8--------------------10-12-------------------------------|
|------------------------------------------------------------|

|-13-10----10-15-10----10-13-10-13-16-13----13-16-17-16-13----|
|-------13----------13-------------------15----------------15-|
|-------------------------------------------------------------|
|-------------------------------------------------------------|
|-------------------------------------------------------------|
|-------------------------------------------------------------|

Solo Rhythm part 2
Guitar 2
|-----------------------------------|--------------------------------|
|-----------------------------------|--------------------------------|
|-----------------------------------|------------------------5---5-5-|
|--7---------------8---8---5---5----|-7----------------------5---5-5-|
|--7---------------8---8---5---5----|-7--------------0---2-3-3---3-3-|
|--7-----7777777---8---8---5---5----|-7-----777777---0---2-3---------|

||------------------------------------------------------------------||
|o------------------------------------------------------------------o|
||-3---3-3---3-3---5---5-5---5-5------------------------------------||
||-3---3-3---3-3---5---5-5---5-5---0--------------------------------||
|o-1---1-1---1-1---3---3-3---3-3---0--------------------------------o|
||---------------------------------0-----00000000000000000000000000-||

|---------------------------------------------------|-----------------|
|---------------------------------------------------|-----------------|
|-3---3-3---3-3-------------------------------------|-----------------|
|-3---3-3---3-3---5---5-5---------------------------|-0---------------|
|-1---1-1---1-1---5---5-5---5-5-5-5-5-5-5-5-5-5-5-5-|-0---------------|
|-----------------5---5-5---5-5-5-5-5-5-5-5-5-5-5-5-|-0---------------|


Solo part 2
Guitar 1
|--------------------------------9h10h12BU(13)---(12)-10-13BU(15)---(13)-12-|
|-14~~~~~~~~~~~~---------9h10h12--------------------------------------------|
|----------------9h10h12----------------------------------------------------|
|---------------------------------------------------------------------------|
|---------------------------------------------------------------------------|
|---------------------------------------------------------------------------|

|-17---\12---12------|-----------------------------------|
|-----------------14-|-15~~-17-18-/20---18-17-15~~~~~~~~-|
|--------------------|-----------------------------------|
|--------------------|-----------------------------------|
|--------------------|-----------------------------------|
|--------------------|-----------------------------------|

Guitar 3
|---------------------------------------------------------------------------|
|-----------------10---11---13~~~~~~~~-------------------11---13---15~~~~~~-|
|---------9h10h12-------------------------------10h12h14--------------------|
|-8h10h12------------------------------10h12h14-----------------------------|
|---------------------------------------------------------------------------|
|---------------------------------------------------------------------------|
|
|Guitar 4
|----------------8---10---12~~~~~~~~------------------10---12---13~~~~~~-|
|--------8h10h11-----------------------------10h11h13--------------------|
|-7h9h10-----------------------------9h10h12-----------------------------|
|------------------------------------------------------------------------|
|------------------------------------------------------------------------|
|------------------------------------------------------------------------|

Guitar 1
|-10----10----10-15-10-13-10-10-13-10----10-10----------------------------|
|----13----13-------------------------13-------13-10----------------------|
|----------------------------------------------------12-10----------12p10-|
|----------------------------------------------------------12-10-12-------|
|-------------------------------------------------------------------------|
|-------------------------------------------------------------------------|

Guitar 1
|---------|
|---------|
|---------|
|---------|
|-13~~~~~-|
|---------|
|
|Guitar 3
|-10~~~~~~-------10-13-12-10----10-12~~~~~~~~-------12-15-13-12----12-|-(14)~~-|
|-------------11-------------13------------------13-------------15----|--------|
|----------10---------------------------------12----------------------|--------|
|---------------------------------------------------------------------|--------|
|---------------------------------------------------------------------|--------|
|---------------------------------------------------------------------|--------|
|
|Guitar 4
|-6~~~~~~-----6-10-8-6----6-8~~~~~~~~------8-12-10-8----8-|-(10)~~-|
|-----------6----------10----------------8-----------11---|--------|
|---------7----------------------------9------------------|--------|
|---------------------------------------------------------|--------|
|---------------------------------------------------------|--------|
|---------------------------------------------------------|--------|

Guitar 1
  Tr------
|-14-------15~~~~~\-10-----/ó14~~~~~\-8~~~~~~-10~~~~----------|
|----------------------------------------------------7---8-10-|
|-------------------------------------------------------------|
|-------------------------------------------------------------|
|-------------------------------------------------------------|
|-------------------------------------------------------------|

|-----------------------------------10h12h13BU(15)~~~~~~~~~~~~-|
|-10BU(11)~~~~~~~~---------10h11h13----------------------------|
|------------------9h10h12-------------------------------------|
|--------------------------------------------------------------|
|--------------------------------------------------------------|
|--------------------------------------------------------------|

|-13h15p13----13-15BU(17)~~~~~~(17)DB----------------|
|----------15------------------(17)DB----------------|
|----------------------------------------------------|
|----------------------------------------------------|
|----------------------------------------------------|
|----------------------------------------------------|

Thatís all guys, please rate :)
Tap to rate this tab
 
# A B C D E F G H I J K L M N O P Q R S T U V W X Y Z