Song name
# A B C D E F G H I J K L M N O P Q R S T U V W X Y Z

Avenged Sevenfold - Shepherd Of Fire tab

-------------------------------------------------------------------------------
                             Shepherd of Fire - Avenged Sevenfold
-------------------------------------------------------------------------------
Tabbed by:SlimCognito51
E-mail:slimcognito20@live.com
Tuning:Drop D
Youtube-SlimCognito51

    full   full
e|-15brb--15brbh13---------------------13-17-17-17-13--------13-16-16-16--|
B|---------------------15-13-15v----15----------------15---15-------------|
G|-------------------------------14----------------------14---------------|
D|------------------------------------------------------------------------|
A|------------------------------------------------------------------------|
E|------------------------------------------------------------------------|

e|-13------13-15-15-15-13-----13-13-13-10------10-12-12-12-10------------|
B|---15--15--------------15--------------10--10--------------10----------|
G|-----14------------------14--------------10------------------10-13v----|
D|-----------------------------------------------------------------------|
A|-----------------------------------------------------------------------|
E|-----------------------------------------------------------------------|

e|--------------------------------------15brb-15v------------------------|
B|-13br13p10-----------------15br-p13------------------------------------|
G|----------12-10-12b-10--------------14---------------------------------|
D|----------------------12-10--------------------------------------------|
A|-----------------------------------------------------------------------|
E|-----------------------------------------------------------------------|

e|----------------------------------------------------------------------|
B|-18-18-18-18-15-15-15-15-17-17-17-17-18-18-18-18----------------------|
G|------------------------------------------------17-17-17-17-----------|
D|-----------------------------------------------------------18-18-18-18|
A|----------------------------------------------------------------------|
E|----------------------------------------------------------------------|

e|--------------------------------------------------------------------|
B|--------------------------------------------------------------------|
G|-17-17-17-17--------------------------------------------------------|
D|------------15-15-15-15-17-17-17-17-18v-----------------------------|
A|--------------------------------------------------------------------|
E|--------------------------------------------------------------------|

e|-------------9-12-10-9----------------10-15-13-10--10-13-10-15-10---|
B|-----------10---------10------------11-----------13-----------------|
G|----------9-------------9---------10--------------------------------|
D|--------10---------------10-----12----------------------------------|
A|-8-11-12-------------------12-13------------------------------------|
E|--------------------------------------------------------------------|

e|-16-15-13-15-16-15-13---------------------------|
B|---------------------15-14v---------------------|
G|------------------------------------------------|
D|------------------------------------------------|
A|------------------------------------------------|
E|------------------------------------------------|

e|----------------9-10-12b-10-13b-12-17/12-12-9-10-12-13-13/15-13-12--------|
B|---------9-10-12--------------------------------------------------15v-----|
G|--9-10-12-----------------------------------------------------------------|
D|--------------------------------------------------------------------------|
A|--------------------------------------------------------------------------|
E|--------------------------------------------------------------------------|

e|----------------------------------------------------------------------|
B|---------------10-11-13v----------------11-13-15v---------------------|
G|--------9-10-12-----------------10-12-14------------------------------|
D|-8-10-12----------------10-12-14--------------------------------------|
A|----------------------------------------------------------------------|
E|----------------------------------------------------------------------|

e|-10--10--10-15-10-13-10-10-13-10--10-10-----------------------------------|
B|---13--13-----------------------13-----13-10------------------------------|
G|---------------------------------------------12-10--------12-10-----------|
D|--------------------------------------------------12-10-12------12/8v-----|
A|--------------------------------------------------------------------------|
E|--------------------------------------------------------------------------|

e|-------10---------------------12-------14-14-14-14/15v-----------------|
B|-----11--13-11-13-11-13v----13--15-14----------------------------------|
G|---10---------------------12---------12--------------------------------|
D|-12---------------------14---------------------------------------------|
A|-----------------------------------------------------------------------|
E|-----------------------------------------------------------------------|

e|-10-10-10-10/14v-8-8-8-8/10v-----------------6-8-10/13b-10--10-13/15v-----|
B|----------------------------7-8-10-10b-6-8-10-------------13---------15br-|
G|--------------------------------------------------------------------------|
D|--------------------------------------------------------------------------|
A|--------------------------------------------------------------------------|
E|--------------------------------------------------------------------------|

On the last note bend the string up and then pick it, then slowly bring it down.
b=bend
br=bend release
brb=bend release bend
/slide
v=vibrato
h=hammer on
p=pull of
Tap to rate this tab
# A B C D E F G H I J K L M N O P Q R S T U V W X Y Z