Song name
# A B C D E F G H I J K L M N O P Q R S T U V W X Y Z

Avicii - Hey Brother tab

Hey Brother - Avicii

You will find my explanation video on my
youtube channel ipsaous .

****************************************************
Info : For the rythm, you can just do Down UP.
When you see G(2), you have to play
2 times DU so u play DUDU etc .... :D
****************************************************




Capo 3

Intro

   Em
e|-----------------------------------------|
B|-----------------------------------------|
G|-----------------------------------------|
D|----2---2---2---2---2---2---2---2--------|
A|-----------------------------------------|
E|--0---0---0---0---0---0---0---0----------|


Verse 1

     Em
e||---------------------------------------|
B||---------------------------------------|
G||*--------------------------------------|
D||*----2---2---2---2---2---2---2---2-----|
A||---------------------------------------|
E||---0---0---0---0---0---0---0---0-------|
     Hey              Brother,    There's an
     Hey              sister,     Know the

    C           G          D          Em
e|--------------------------------------------------------||
B|--------------------------------------------------------||
G|------0---0--------------------------------------------*||
D|----------------0---0------7--7--------2---2---2---2---*||
A|---3---3-----------------5---5--------------------------||
E|--------------3---3-----------------0---0---0---0-------||
     endless  road to    Redis   -    cover
     water's  sweet but  blood   is   thicker.


   D                    G          C          D               D
e|---------------------------------------------------------------------------|
B|---------------------------------------------------------------------------|
G|----------------------------------0---0------------------------------------|
D|---7---7---7---7-------0---0-----------------7---7---7---7---7---7---7---7-|
A|-5---5---5---5------------------3---3------5---5---5---5---5---5---5---5---|
E|---------------------3---3-------------------------------------------------|
   Ooooh       if the  sky comes  falling    down          for you    there’s

     G                C                  Em
e|--------------------------------------------0----------------------------|
B|-------------------------------------------0-----------------------------|
G|-----------------------0-----0------------0------------------------------|
D|-----0---0-------------------------------2-------------------------------|
A|--------------------3----3--------------2--------------------------------|
E|---3---3-------------------------------0---------------------------------|
   nothing in this   world I wouldn't    do


Verse 2

Em(8)              C(2)      G(2)    D(2)   Em(4)
Hey Brother, do you still believe in one another?
Em(8)              C(2)      G(2)    D(2)   Em(4)
Hey Sister, do you still believe in love I wonder?
D(4)         G(2)      C(2)    D(4)      D(4)
Ooooh if the sky comes falling down, for you,
        G(2)            C(2)             Em(4) + 1 fois B
there’s nothing in this world I wouldn't do.

Riff
E|-3-2

Chorus

Em(4)          C(2)     G(8)
   What if I'm far from home?
                                Em(4)
Oh Brother I will hear you call.
          C(2)    G(8)
What if I lose it all?

Oh Sister I will help you out!

D(4)         G(2)      C(2)    D(4)      D(4)
Ooooh if the sky comes falling down, for you,
        G(2)            C(2)             Em(4) + 1 fois B
there’s nothing in this world I wouldn't do.


Solo

e|------||-----------------------------------------------2p0-------------||
B|------||--------------0-3-5-5-3-3----------------0-3-5------3----------||
G|--0---||*-----------0-------------------0-0-0-0---------------4p2p0---*||
D|----4-||*---2-2-2------------------0h2--------------------------------*|| X 3
A|------||---------------------------------------------------------------||
E|------||---------------------------------------------------------------||

e|-----------------------------------------0--------|
B|--------------0-3-5-5-3-3------------------3-0-3--|
G|-----------0-------------------0-0-0-0------------|
D|---2-2-2------------------0h2---------------------|
A|--------------------------------------------------|
E|--------------------------------------------------|

e|-----------------------------------------------2p0------------||
B|--------------0-3-5-5-3-3----------------0-3-5------3---------||
G|-----------0-------------------0-0-0-0---------------4p2p0---*||
D|---2-2-2------------------0h2--------------------------------*|| X 2
A|--------------------------------------------------------------||
E|--------------------------------------------------------------||

Play this chords during the solo ( 6 times )

Em(4)  C(2)  D(2)

Verse 3

Em                      C       G       D      Em
Hey Brother, there’s an endless road to re-discover.
Em                 C        G      D      Em
Hey Sister, do you still believe in love I wonder?
D            G         C       D          D
Ooooh if the sky comes falling down, for you,
        G               C                Em
there’s nothing in this world I wouldn't do.


E|-3-2

Chorus

Em             D        G
   What if I'm far from home?
                                Em
Oh Brother I will hear you call.
          D       G
What if I lose it all?

Oh Sister I will help you out!
D            G         C       D
Ooooh if the sky comes falling down, for you,
        G               C                Em
there's nothing in this world I wouldn't do.



Chorus:

Em C D
Tap to rate this tab
# A B C D E F G H I J K L M N O P Q R S T U V W X Y Z