Song name
# A B C D E F G H I J K L M N O P Q R S T U V W X Y Z

Axel Rudi Pell - Broken Heart tab

-------------------------------------------------------------------------------
			     Axel Rudi Pell - Broken Heart
-------------------------------------------------------------------------------

Tabbed by: Zaid Daba'een

This is the way I play it.


Tuning: Half Step Down

Intro and verses:
d#|-----------------------------------------------------------------|
A#|-----1---------------1---------------1---------------0-----------|
F#|-------2---------------2---------------2---------------0---------|
C#|---2---------------3---------------2---------------2-------------|
G#|-0---------------0---------------0---------------2---------------|
D#|-----------------------------------------------------------------|

Bridge:
C    G                Am          
Oh I wish we could go back to where we started,
C          G               Am
Love, lost love, you're so cold, cold hearted,
C                G         Am
the fire in your eyes gets me out of my mind,
C            G                  F     G
how could it be, that you're so blind

Or Bridge can be done as:                                                x3
d#|-----|---------0---------------3---------------0---------------0-------|
A#|-----|-------1---1---------------0---1-------1---1---1-------1---1---1-|
F#|-----|-----0-------0---------0-----0-------2-------2-------2-------2---|
C#|-----|---2-----------2-----0-------------2---------------2-------------|
G#|-0-2-|-3-----------------2-------------0---------------0---------------|
D#|-----|-----------------3-----------------------------------------------|

d#|---------0---------------3--------1----3-|
A#|-------1---1---------------0---1--1----3-|
F#|-----0-------0---------0-----0----2----4-|
C#|---2-----------2-----0------------3----5-|
G#|-3-----------------2--------------3----5-|
D#|-----------------3----------------1----3-|

Bridge 2:
Am
Don't leave me alone
C              G
with my broken heart
F                        Am                 G
can't you see, that I've loved you from the start
Am
Don't leave me alone
C              G
with my broken heart
F                        Am                 G
can't you see, that I've loved you from the start



Hope you like it.
Tap to rate this tab
 
# A B C D E F G H I J K L M N O P Q R S T U V W X Y Z