Guitaretab - guitar tabs
Song name
# A B C D E F G H I J K L M N O P Q R S T U V W X Y Z

Axel Rudi Pell - Dont Say Goodbye tab

Artist: Axel Rudi Pell
Song: Don't Say Goodbye
Tuning: Half-Step Down

Tabbed by: guam68
email: guam_68@hotmail.com 

Awesome song but I couldn't find the solo for it and I don't have guitar
pro so I decided to try and tab it out. Only recently started playing 
guitar and this is my first tab so its probably off in quite a few areas.
It sounds pretty good to me though. Leakbox did a spot on job of the rest
of the song so check that out too. I'm open for any criticism/corrections.
Enjoy


[ Tab from: http://www.guitaretab.com/a/axel-rudi-pell/154101.html ]
  3:17
E|-----------------------------------------------------------------12-----|
B|--------------------------------------------------------------------15--|
G|---------7-9h10p7-9---7-9-1010h12-9---14-12-(12)b14r12b14r12--12-------|
D|--7-9-10----------------------------------------------------------------|
A|------------------------------------------------------------------------|
E|------------------------------------------------------------------------|
 |
 |3:27 
E|---------12-------------------------------------------------------------|
B|-13-12-13---13h15-13----------------------------------------------------|
G|---------------------14p12h14p1212b14---12b14-12-------12--------------|
D|--------------------------------------------------14-15----14--12-14-15-|
A|------------------------------------------------------------------------|
E|------------------------------------------------------------------------|
 |
 |3:35		      |- pb -|
E|------------------------------------------------------------------------|
B|------------15b17-17-17-17r15-13-12-15-13-12----------------------------|
G|----12---------------------------------------12-14~-(12)b14-12--12-14-14|
D|-15----14-----------------------------------------------------14--------|
A|------------------------------------------------------------------------|
E|------------------------------------------------------------------------|
 |
 |3:46
E|------------------------------------------------------------------------|
B|------------------------------------------------------------------------|
G|--------------9----------------------15-15-15-17-15-19---19b21--r19-17--|
D|--10-10-10-12---12---10-12---14-15--------------------------------------|
A|------------------------------------------------------------------------|
E|------------------------------------------------------------------------|
 |
 |4:00
E|------------------------------------------------------------------------|
B|------------------------------------------------------------------------|
G|--7-9--9-10-7------7---9------9-9h10-9p7-9--------9-7------7-9-7--------|
D|----------------10-------7----------------10---10------10-------10-10---|
A|------------------------------------------------------------------------|
E|------------------------------------------------------------------------|
 |
 |4:14
E|------------------------------------------------------------------------|
B|------------------------------------------------------------------------|
G|--7-9--9-10-7------7---9------9-9h10-9p7-9--------9-7-------------------|
D|----------------10-------7----------------10---10-----------------------|
A|------------------------------------------------------------------------|
E|------------------------------------------------------------------------|




Related for Dont Say Goodbye tab