Song name
# A B C D E F G H I J K L M N O P Q R S T U V W X Y Z

Axel Rudi Pell - Sailing Away tab

Axel Rudi Pell
Sailing Away
From the album:"Kings And Queens"
-----------------------------------------------------------------------------
Guitar tune: Eb		Tabbed by rockman85 (rockman85_at_jippii.fi)

Intro:			                      2nd		 4th ending
First play only this	1st & 3rd ending      ending
e-------------------I--------------------I------------------I---------------|
--------------------I--------------------I--4--4---5--5-----I--4--4---5-----|
--------------------I--------------------I--7---5--5---5----I--7---5--5-----|
-------3--------3---I-----3--------------I--7------5--------I--7------5-----|
---3-5---5--3-5---5-I-3-5---5---5-3------I--5------3--------I--5------3-----|
E-------------------I----------------1-3-I------------------I---------------|

Riff1:
e-------------------------------------------|
--------------------------------------------|
--4()--2()---4()--6()-----------------------|
--5()--3()---5()--7()-----------------------|
--5()--3()---5()--7()-----------------------|
E-3()--1()---3()--5()-----------------------|

Solo 1:
e----------------------------------------------------------------------------|
----------------------------------------------13b(15)-13b(15)--15-13-13------|
--5b(7)-5b(7)--7-5-5----------------------------------------------------14---|
----------------------7h8p7-7/8-8--------------------------------------------|
----------------------------------8-6-5-5------------------------------------|
E----------------------------------------------------------------------------|

Chorus:
e---------------------------------------------------------|
----------------------------------------------------------|
--5/-7-7--7/-5-5/-7-7---------5/-7-7--7/-5-5--------------|
--5/-7-7--7/-5-5/-7-7-----5-- 5/-7-7--7/-5-5--5--3--------|
--3/-5-5--5/-3-3/-5-5-----5---3/-5-5--5/-3-3--5--3--------|
E-------------------------3-------------------3--1--------|

Ending:
e--------------|
---------------|
---7-()--------|
---7-()--------|
---5-()--------|
E--------------|


Song:

Intro  2x
Verse (intro 2x)
Bridge (riff1 1x)
Solo 1 (intro 1x)
Verse (intro 2x)
Bridge (riff1 1x)
Chorus 2x
Intro 1x
Solo 2 (+intro riff 2x +riff1 1x  +chorus 2x )
Chorus 2x
Solo3  (chorus 1x)
Chorus 2x
Intro 2x (solo 4)
Ending


Sorry about solos but I try to put them here as soon as I'll figure out them!
Tap to rate this tab
 
# A B C D E F G H I J K L M N O P Q R S T U V W X Y Z