Song name
# A B C D E F G H I J K L M N O P Q R S T U V W X Y Z

Babyshambles - Farmers Daughter chords

Highlighted       Show chord diagrams
-------------------------------------------------------------------------------
                             Farmerís Daughter - Babyshambles
-------------------------------------------------------------------------------
Tabbed by: lfgtimmer

Tuning:standard

Intro 
      E   E?  A   B
e|--------9-------------|
B|--------9---5---7-----|
G|----9---9---6---8-----|  play this 3x
D|----9---8---7---9-----|
A|----7-----------------|
E|--0-------------------|

       ^
e|------------------|
B|--10-9-10-9-------|
G|------------9-----|
D|------------------| this fill is played over the B chord in the intro
A|------------------| ^ is picked like 1e 2e 
E|------------------|

      E   E?  E6  B
e|--------9---9---------|
B|--------9---9---7-----|
G|----9---9---9---8-----|  play this the 4th time (E6 is strummed twice)
D|----9---8-------9-----|
A|----7-----------------|
E|--0-------------------|

The rest of the intro is a slide from D to E and B to A 
    D   E   B   A
e|--x---x---7-s-5-------|
B|--7-s-9---7-s-5-------|
G|--7-s-9---8-s-6-------|
D|--7-s-9---9-s-7-------|
A|--5-s-7---9-s-7-------|
E|--x---x---7-s-5-------|

Verse:
E                               A    E
You've been travelling on that dusty road
C#m             B          E
Come break some bread with me!
E                              A     E
With your wife and donkey on a dusty road
C#m            B          E
Now break some bread with me!
A                      B         E
Now come and rest your head with me! 

Instrumental:
Slide from D to E and B to A

Verse:
E                            A        E
When asked to choose between this and that 
B                   C#m
Hmmm, I'll take the former
A                    B     E
I'll take the former every time!
A                    B     E    
I'll take the former every time!

Chorus: 
E  B     D                  A
He knows where his daughter goes
         E      B          D                 A     
It's the way it feels when sunlight hits the snow
Sunlight hits the snow.

Instrumental:
Slide from D to E and B to A

Verse:
E                            A        E
When asked to choose between this and that 
B                   C#m
Hmmm, I'll take the former
A                    B     E
I'll take the former every time!
A                    B     E    
I'll take the former every time!

Chorus: 
E  B     D                  A
He knows where his daughter goes
         E      B          D                 A     
It's the way it feels when sunlight hits the snow
Sunlight hits the snow.

Intro is played again followed by the slide part

Chorus: 
E  B     D                  A
He knows where his daughter goes
         E      B          D                 A     
It's the way it feels when sunlight hits the snow
Sunlight hits the snow.
          E      B     D                  A    
Cause the farmer knows where his daughter goes
It's the way it feels when sunlight hits the snow
         E      B          D                 A     
It's the way it feels when sunlight hits the snow
Sunlight hits the snow.

Intro is played again to end the song, end on E chord
Tap to rate this tab
# A B C D E F G H I J K L M N O P Q R S T U V W X Y Z