Song name
# A B C D E F G H I J K L M N O P Q R S T U V W X Y Z

Band Of Skulls - Honest chords

Highlighted       Show chord diagrams
I know that its not 100% accurate (and only contains one guitar part) but this is 
my variation of it, which generally captures the essence of the song. 

Tuning: Standard Capo on 5th Fret
(V): Variation 


Chords: 

   Am  C  Em Dbmaj7
e|-0---0--0----1-------------------------------------------------|
B|-1---1--0----3-------------------------------------------------|
G|-2---0--0----2-------------------------------------------------|
D|-2---2--2----0-------------------------------------------------|
A|-0---3--2----0-------------------------------------------------|
E|-0---0--0----0-------------------------------------------------|



The Ongoing riff:

   Am         Am          C       Em    Am           
e|--------------------------------------0------------------------|
B|-1-----------1------------------------1------------------------|
G|---2-----------2--------------0-----0-2------------------------|
D|-----2----2------2---2-----2------2---2------------------------|
A|-0------0----0-----0----3-------2-----0------------------------|
E|--------------------------------------0------------------------|



***
 
    G Gdim(V) Em   Em(V)   D
e|--0--0-------0----0------2--------------------------------------|
B|--3--3-------0----0------3--------------------------------------|
G|--0--0-------0----0------2--------------------------------------|
D|--0--0-------2----0------0--------------------------------------|
A|--2--0-------2----2------0--------------------------------------|
E|--3--3-------0----0------0--------------------------------------|
  Im gonna  take you    on




Am 
You gotta be honest 

Am
You gotta be guarded 

C        Em
Sure I'm gonna say 

Am
Right on the inside

Am
That is the hardest

C           Em
The hardest game to play. 

Am
You sorted it all out 

Am
And managed to slip through 

    C     Em
The night into the day. 

Am
Life and the soul 

Am
Do you ever get lonely? 

G     Gdim(V)   Em   Em(V)  D  ***
I'm   goin'     take you    on. 

Am                             Em
Found the way to understand the things I'm learning. 

Am                             Dbmaj7
Found the way to understand the time your burning. 

Am                             Em
Found the way to understand the things I'm learning. 

Am                             Dbmaj7
Found the way to understand the time you're burning. 


Am 
You gotta be honest 

Am
You gotta be guarded 

C        Em
Sure I'm gonna say 

Am
Right on the inside

Am
That is the hardest

C           Em
The hardest game to play. 

Am
You sorted it all out 

Am
And managed to slip through 

    C     Em
The night into the day. 

Am
Life and the soul 

Am
Do you ever get lonely? 

G     Gdim(V)   Em   Em(V)  D  ***
I'm   goin'     take you    on.

Am                            Em
Found the way to understand the things I'm learning. 

Am                            Dbmaj7
Found the way to understand the time your burning. 

Am                            Em
Found the way to understand the things I'm learning. 

Am                            Dbmaj7
Found the way to understand the time you're burning.

G    Gdim(V)   Em   Em(V)  D  ***
I'm  goin'     take you    on.

Am 
You gotta be honest 

Am
You gotta be guarded 

C        Em
Sure I'm gonna say 

Am
Right on the inside

Am
That is the hardest

C           Em
The hardest game to play. 
Tap to rate this tab
# A B C D E F G H I J K L M N O P Q R S T U V W X Y Z