Song name
# A B C D E F G H I J K L M N O P Q R S T U V W X Y Z

Barefoot Truth - The Ocean tab

First time tabbing a song, very accurate. Hope you enjoy, please rate!!

P.S. if there are any changes to be made please let me know!


   E   Eadd   A   Aadd  C#m    B          Gm
e|-------------------------------------------------------------|
b|------------2----3----5------4-------------------------------|
g|-1----2-----2----2----6------4----------5--------------------|
d|-2----2-----2----2----6------4----------6--------------------|
a|-2----2---------------4------2----------6--------------------|
e|----------------------------------------4--------------------|

intro guitar 1
        E                   A                 x2    E

guitar 2
e|------------------------------7----5---7------------| x2
b|-------------------------5----5----5---5------------|
g|-----9-------------------6----6----6---6---       9-|
d|-----9-------------------7----7----7---7--        9-|
a|-----7------------------------------------        7-|
e|----------------------------------------------------|


fast second part of intro

guitar 1                 E                          B
                         E                          B


e|------0-0----0----0----------------0--0---0---0-----------------------------|
b|--4/5-----7------------12------4/5------7---------7-------------------------|
g|---------------6-------13-------------------6-----8-------------------------|
d|-----------------------14-------------------------9-------------------------|
a|----------------------------------------------------------------------------|
e|----------------------------------------------------------------------------|

e|------0-0----0----0----------------0--0---0---0-----------------------------|
b|--4/5-----7------------12------4/5------7---------7-------------------------|
g|---------------6-------13-------------------6-----8-------------------------|
d|-----------------------14-------------------------9-------------------------|
a|----------------------------------------------------------------------------|
e|----------------------------------------------------------------------------|

chorus part
 guitar 1
          C#m               B                  E     x3
          C#m               B                  A
guitar 2

e|-----------------------------------------------------|
b|-----------------------------------------------------|
g|--------9-----------------8------------------9-------|
d|--------11----------------9------------------9-------|
a|--------11----------------9------------------7-------|
e|-----------------------------------------------------| x3


e|----------------------------------------------------|
b|---------------------------------------------5------|
g|--------9-----------------8------------------6------|
d|--------11----------------9------------------7------|
a|--------11----------------9-------------------------|
e|----------------------------------------------------|

verses

guitar 1
    E Eadd E   E Eadd E    A  Aadd A   A Aadd A ....through out verse

guitar 2
e|----------------------------------------------------|
b|--12-----12--12----12----5------5----5----5---------|
g|--13--14-13--13-14-13----6---7--6----6--7-6---------|
d|--14-----14--14----14----7------7----7----7---------|
a|----------------------------------------------------|
e|----------------------------------------------------|   throughout verse

end part

E    B    C#m   G#   A   B  E

very end of solo

e|--12-9-----9----------------------------------------------------------------|
b|-------12-----12--9--12--9------9-------------------------------------------|
g|----------------------------11-----11--9--11--9-----9-----------------9-----|
d|-------------------------------------------------11----11---9-------9-------|
a|---------------------------------------------------------------9--11--------|
e|----------------------------------------------------------------------------|

e|--12-9-----9---------------------------------------------------------------|
b|-------12-----12--9--12--9------9------------------------------------------|
g|----------------------------11-----11--9--11--9-----9----------------------|
d|-------------------------------------------------11----11---9-------9------|
a|---------------------------------------------------------------9-11--------|
e|----------------------------------------------------------------------12---|

e|--12-9-----9----------------------------------------------------------------|
b|-------12-----12--9--12--9------9-------------------------------------------|
g|----------------------------11-----11--9--11--9-----9-----------------9-----|
d|-------------------------------------------------11----11---9-------9-------|
a|---------------------------------------------------------------9--11--------|
e|----------------------------------------------------------------------------|

e|--12-9-----9---------------------------------------------------------------|
b|-------12-----12--9--12--9------9------------------------------------------|
g|----------------------------11-----11--9--11--9-----9----------------------|
d|-------------------------------------------------11----11---9-------9------|
a|---------------------------------------------------------------9-11--------|
e|----------------------------------------------------------------------12---|
Tap to rate this tab
 
# A B C D E F G H I J K L M N O P Q R S T U V W X Y Z