Song name
# A B C D E F G H I J K L M N O P Q R S T U V W X Y Z

Basement - Covet tab

Basement - Covet

Tabbed by ear by Ben Jenkins @ benrhysjenkins@gmail.com

Structure: Intro, Full Into, Verse, Bridge, Chorus, Bridge, Chorus.
Tuning: Drop C#
           C#  G#  C#  F#  A#  D#    use howtotuneaguitar.org and select Drop C#

Intro: (Get timing correct on each note, it's usually about 5 strums per note)
D#|-------------------------------------------------------------|
A#|-------------------------------------------------------------|
F#|-------------------------------------------------------------|
C#|---3---14--/15/14---7---10----3---14--/15/14---7(once)-------|
G#|---3---14--/15/14---7---10----3---14--/15/14---7(once)-------|
C#|---3---14--/15/14---7---10----3---14--/15/14---7(once)-------|

    (Full Band Intro)
|-------------------------------------------------------------|
|-------------------------------------------------------------|
|-------------------------------------------------------------|
|---3---14--/15/14---7---10----3---14--/15/14---7---10--------| x2
|---3---14--/15/14---7---10----3---14--/15/14---7---10--------|
|---3---14--/15/14---7---10----3---14--/15/14---7---10--------|

Verse: (pause then lead guitar) (Lead guitar is slightly palm muted)
                ("outside…")
|-------------------------------------------------------------|
|-------------------------------------------------------------|
|-------------------------------------------------------------|
|---(8)x2---(7)---(5)-----------------------------------------| x2
|-------------------------------------------------------------|
|-------------------------------------------------------------|

Bridge: 
|-------------------------------------------------------------|
|-------------------------------------------------------------|
|-------------------------------------------------------------|
|---10--------------------------------------------------------|
|---8---------------------------------------------------------|
|---8---------------------------------------------------------|

Chorus: Guitar 1 (Same as intro!)
|-------------------------------------------------------------|
|-------------------------------------------------------------|
|-------------------------------------------------------------|
|---3---14--/15/14---7---10----3---14--/15/14---7---10--------| x2
|---3---14--/15/14---7---10----3---14--/15/14---7---10--------|
|---3---14--/15/14---7---10----3---14--/15/14---7---10--------|

Chorus: Guitar 2
                                @ 1:37
|-------------------------------------------------------------|
|-------------------------------------------------------------|
|------9----9----9--10p9------------5---5/4---4-5p4-----------|
|---10---10---10---------10-------7---7-----5-------5---------| 
|-------------------------------------------------------------|
|-------------------------------------------------------------|
                                                                                        
|-------------------------------------------------------------|
|--------------------------------------------------------8----|
|------9----9----9--10p9------------5---5/4---4-5p4------9----|
|---10---10---10---------10-------7---7-----5-------5----10---| 
|-------------------------------------------------------------|
|-------------------------------------------------------------|

BRIDGE

CHORUS (guitar 2 has a solo which leads into the above)
Tap to rate this tab
 
# A B C D E F G H I J K L M N O P Q R S T U V W X Y Z