Song name
# A B C D E F G H I J K L M N O P Q R S T U V W X Y Z

Basement - Pine tab

basement - pine
jjjddd

Drop C# + Bb/A# tuned down to Ab
(it might not have the Ab but makes the open notes sound better so do what you want)

intro (clean)
eb|------------------------------------------------0---------|
Ab|------------------------------------------------0---------|
Gb|-----------13--------11---------------13--------9---------|
Db|-----11-------11-----11---------11-------11-----11--------|
Ab|--12----12-------12--12------12----12-------12--12--------|
Db|----------------------------------------------------------|


[distortion on]


verse [[[[PLAY 4 TIMES BEFORE LYRICS START]]]]         |lyrics|
eb|-----------------------0---0--0---0--0---|    special, i wish you were special
Ab|-----------------------0---0--0---0--0---|    but i cant think of you that way
Gb|--13--13--13-13--13----11--11-11--11-11--|x8  want me, i need you to want me
Db|--11--11--11-11--11----11--11-11--11-11--|    i hate myself, but thats okay
Ab|--12--12--12-12--12----12--12-12--12-12--|
Db|-----------------------------------------|

chorus (lead part)
eb|-----------------------------------------|         |lyrics|
Ab|--4b----------4b--------------4b---------|    because i never have enough
Gb|------------------------2/4--------------|    i dont love you
Db|------2h4-2-------2h4-2-----------2h4-2--|    i just need to be loved
Ab|-----------------------------------------|
Db|-----------------------------------------|

verse [[[[PLAY 4 TIMES BEFORE LYRICS START]]]]        |lyrics|      
eb|-----------------------0---0--0---0--0---|    want me
Ab|-----------------------0---0--0---0--0---|    i need you to want me
Gb|--13--13--13-13--13----11--11-11--11-11--|x4  i hate myself
Db|--11--11--11-11--11----11--11-11--11-11--|    but thats okay
Ab|--12--12--12-12--12----12--12-12--12-12--|
Db|-----------------------------------------|


     chorus
(lead part)
eb|-----------------------------------------|         |lyrics|
Ab|--4b----------4b--------------4b---------|    because i never have enough
Gb|------------------------2/4--------------|    i dont love you
Db|------2h4-2-------2h4-2-----------2h4-2--|    i just need to be loved
Ab|-----------------------------------------|
Db|-----------------------------------------|


     solo
(rhythm part)
eb|------------------------------------|
Ab|------------------------------------|
Gb|------------------------------------|
Db|--7-7-7-7-7-7-7-7--4-4-4-4-4-4-4-4--|
Ab|--7-7-7-7-7-7-7-7--4-4-4-4-4-4-4-4--|
Db|--7-7-7-7-7-7-7-7--4-4-4-4-4-4-4-4--|

eb|------------------------------------|
Ab|------------------------------------|
Gb|--7-7-7-7----------7-7-7-7-4-4-4-4--|
Db|--7-7-7-7-7-7-7-7--7-7-7-7-5-5-5-5--|
Ab|--5-5-5-5-5-5-5-5--5-5-5-5-5-5-5-5--|
Db|----------5-5-5-5----------5-5-5-5--|

(lead part)
eb|------------------------------------|
Ab|------------------------------------|
Gb|------------------------------------|
Db|-9bu--9b-7~~-----7h9--9b-9b-9b-7-7--|
Ab|-------------7h9--------------------|
Db|------------------------------------|

eb|-----------------------------------------------------------|
Ab|----------------19-------------------19b-------------------|
Gb|-------14h16/18----18p16----------------18-16-------14-----|
Db|-14h16-------------------14h16-14-------------14h16----16--|
Ab|-----------------------------------------------------------|
Db|-----------------------------------------------------------|


     outro
eb|------------------------------------|
Ab|------------------------------------|
Gb|------------------------------------|
Db|--7-7-7-7-7-7-7-7--4-4-4-4-4-4-4-4--|        |lyrics|
Ab|--7-7-7-7-7-7-7-7--4-4-4-4-4-4-4-4--|   im a liar
Db|--7-7-7-7-7-7-7-7--4-4-4-4-4-4-4-4--|   im a fake
                                           open up your chest
eb|------------------------------------|   and let me throw
Ab|------------------------------------|   your heart away
Gb|--7-7-7-7----------7-7-7-7-4~~~~~---|
Db|--7-7-7-7-7~~~~----7-7-7-7-5~~~~~---|
Ab|--5-5-5-5-5~~~~----5-5-5-5-5~~~~~---|
Db|----------5~~~~------------5~~~~~---|




RIP BASEMENT
Tap to rate this tab
 
# A B C D E F G H I J K L M N O P Q R S T U V W X Y Z