Song name
# A B C D E F G H I J K L M N O P Q R S T U V W X Y Z

Basement - Spoiled tab

Basement - Spoiled 
jjjddd

Drop C#

    intro
eb|-------------------------------|
Bb|-------------------------------|
Gb|--------3bu-------3bu-----3b---|
Db|--4-4-4-----4-4-4-----4-4------|x6
Ab|--4-4-4-----4-4-4-----4-4------|
Db|--4-4-4-----4-4-4-----4-4------|
     * * *     * * *     * *    
eb|-------------------------------|
Bb|-------------------------------|
Gb|-------------------------------|
Db|--9-9--9-9-9--14-14--14-14-14--|
Ab|--9-9--9-9-9--12-12--12-12-12--|
Db|--9-9--9-9-9--12-12--12-12-12--|

eb|-------------------------------|
Bb|-------------------------------|
Gb|--------3bu-------3bu-----3b---|
Db|--4-4-4-----4-4-4-----4-4------|x3
Ab|--4-4-4-----4-4-4-----4-4------|
Db|--4-4-4-----4-4-4-----4-4------|
     * * *     * * *     * *    
eb|----------------------------------|
Bb|----------------------------------|
Gb|----------------------------------|
Db|--9-9--9-9-9--14-14--14-14-14\4~~-|
Ab|--9-9--9-9-9--12-12--12-12-12\4~~-|
Db|--9-9--9-9-9--12-12--12-12-12\4~~-|


   verse
eb|----------------------------------|
Bb|----------------------------------|   |lyrics|
Gb|----------------------------------|  colour me in kindness
Db|-4~~--/-9---x-x--\4-----4--/-9b~~-|  cover me with love
Ab|-4~~--/-9---x-x--\4-----4--/-9b~~-|  i am blessed
Db|-4~~--/-9 --x-x--\4-----4--/-9b~~-|

eb|--------------------------------------|
Bb|--------------------------------------|    |lyrics|
Gb|--------------------------------------|   youre burying your father
Db|--4-4-4-4--4-4-4-4--5-5-5-5--9-9-9-9--|x2 youre burying your son
Ab|--4-4-4-4--4-4-4-4--5-5-5-5--9-9-9-9--|   you are dead
Db|--4-4-4-4--4-4-4-4--5-5-5-5--9-9-9-9--|
     * * *    * * *    * * *    * * * 

chorus
eb|-------------------------------------------|    |lyrics|
Bb|-------------------------------------------|   i know nothing of real pain
Gb|--------------------------6-6-6-6-6-6-6-6--|   im a child and i am spoiled
Db|-111111111-14-14-14-14-14-4-4-4-4-4-4-4-4--|x2 i hate myself for my complaints
Ab|-9-9-9-9-9-12-12-12-12-12-4-4-4-4-4-4-4-4--|   im pathetic and im bored
Db|-9-9-9-9-9-12-12-12-12-12-4-4-4-4-4-4-4-4--|

eb|--------------------------------------|
Bb|--------------------------------------|   |lyrics|
Gb|-9-9-9-9-9-7-7-7-7-7-6-6-6-6-6-6-6-6--|  i cry simply at the thought
Db|-7-7-7-7-7-5-5-5-5-5-4-4-4-4-4-4-4-4--|  i crumble at the sight
Ab|-7-7-7-7-7-5-5-5-5-5-4-4-4-4-4-4-4-4--|  
Db|-7-7-7-7-7-5-5-5-5-5-4-4-4-4-4-4-4-4--|

eb|----------------------|
Bb|----------------------|   |lyrics|
Gb|-9-9-9-9-9-7-7-7-7-7--| if i ever had to...
Db|-7-7-7-7-7-5-5-5-5-5--| 
Ab|-7-7-7-7-7-5-5-5-5-5--|
Db|-7-7-7-7-7-5-5-5-5-5--|

intro (again)
eb|-------------------------------|      |lyrics|
Bb|-------------------------------|    feel, i 
Gb|--------3bu-------3bu-----3b---|    id fall to my knees
Db|--4-4-4-----4-4-4-----4-4------|x3  pray for
Ab|--4-4-4-----4-4-4-----4-4------|
Db|--4-4-4-----4-4-4-----4-4------|
     * * *     * * *     * *    
eb|-------------------------------|     |lyrics|
Bb|-------------------------------|   god to save me
Gb|-------------------------------|
Db|--9-9--9-9-9--14-14--14-14-14--|
Ab|--9-9--9-9-9--12-12--12-12-12--|
Db|--9-9--9-9-9--12-12--12-12-12--|

eb|-------------------------------|     |lyrics|
Bb|-------------------------------|   feel, i
Gb|--------3bu-------3bu-----3b---|   id fall to my knees
Db|--4-4-4-----4-4-4-----4-4------|x3 pray for
Ab|--4-4-4-----4-4-4-----4-4------|
Db|--4-4-4-----4-4-4-----4-4------|
     * * *     * * *     * *    
eb|----------------------------------|   |lyrics|
Bb|----------------------------------|  god to save me
Gb|----------------------------------|
Db|--9-9--9-9-9--14-14--14-14-14\4~~-|
Ab|--9-9--9-9-9--12-12--12-12-12\4~~-|
Db|--9-9--9-9-9--12-12--12-12-12\4~~-|


bridge/verse (/w flange)                  |lyrics|
eb|--------------------------------|   i have never been in love 
Bb|----0-----0-------0-------------|   i pretend to care
Gb|------3-----3------4-----7-6\3--|   convince myself that its enough
Db|--------------------------------|x6 i was never there
Ab|--4-----4-----4/5---5/9---------|   i am hiding in the dust
Db|--4-----4-----4/5---5/9---------|   sweep me underneath the chair
                                       i have never been in love, i keep on giving...

ending
eb|------------------------------------|
Bb|------------------------------------|    |lyrics|
Gb|------------------------------------|   i keep on giving up
Db|-4444444444444444-55555555-99999999-|x5 i keep on giving...
Ab|-4444444444444444-55555555-99999999-|
Db|-4444444444444444-55555555-99999999-|

eb|-----------------------------|
Bb|-----------------------------|
Gb|--------3bu-------3bu--------|
Db|--4-4-4-----4-4-4-----4-4-4--|
Ab|--4-4-4-----4-4-4-----4-4-4--|
Db|--4-4-4-----4-4-4-----4-4-4--|
     * * *     * * *     * * *  


RIP BASEMENT

Tap to rate this tab
# A B C D E F G H I J K L M N O P Q R S T U V W X Y Z