Song name
# A B C D E F G H I J K L M N O P Q R S T U V W X Y Z

Basement - Earl Grey tab

-----------------------------------------------------------------------------
                             EARL GREY - Basement
-----------------------------------------------------------------------------
Tuning: Drop C#: basically Drop D in half-step down tuning. Also, I submitted a guitar 
pro tab for this which shows the rhythms and everything a lot better, but I figured I'd 
make this for everyone who doesn't have guitar pro.


Intro: play around with these chords
eb|---------0-------------------7----4------|
Bb|-------0-------------5-------5-----------|
Gb|------------6--------6-------6-----------|
Db|-7----------7--------7-------7-----------|
Ab|-0----------0--------0-------0-----------|
Db|-0----------0--------0-------0-----------|

Lead part in intro:
eb|-----------------------------------------------|
Bb|-----------------------------------------------|
Gb|-6------6--6/9----9-9/6-----6--6/4---4-4/6-----|
Db|-----------------------------------------------|
Ab|-4------4--4/7----7-7/4-----4--4/2---2-2/4-----|
Db|-----------------------------------------------|



Fast Part:
eb|------------------------------------------------------|
Bb|------------------------------------------------------|
Gb|--------------4-4--4--4--4----------------------------|
Db|-0-0--0--0--0-4-4--4--4--4-4-4--4--4--4-2-2--2--2--2--|
Ab|-0-0--0--0--0-2-2--2--2--2-4-4--4--4--4-2-2--2--2--2--|
Db|-0-0--0--0--0--------------4-4--4--4--4-2-2--2--2--2--|

Next Part:
                                      x4
eb|-------------------------------------|----|
Bb|-------------------------------------|----|
Gb|----------44444444-------------------|----|
Db|-00000000-44444444-44444444-22222222-|-0--|
Ab|-00000000-22222222-44444444-22222222-|-0--|
Db|-00000000----------44444444-22222222-|-0--|

Lead part:                                              x2
eb|-------------------------------------------------------|-------|
Bb|-------------------------------------------------------|-------|
Gb|-4/6666666666-4/66666666666-7/9999999999-7/99999999999-|-4/6---|
Db|-------------------------------------------------------|-------|
Ab|-------------------------------------------------------|-------|
Db|-------------------------------------------------------|-------|


Slow Heavy Part:
eb|-----------------------------------------|
Bb|-----------------------------------------|
Gb|-6-6--6-6--6-6--6-6--6-6--6-6--6-6--4-4--|
Db|-4-4--4-4--4-4--4-4--4-4--4-4--4-4--2-2--|
Ab|-4-4--4-4--4-4--4-4--4-4--4-4--4-4--2-2--|
Db|-4-4--4-4--4-4--4-4--4-4--4-4--4-4--2-2--|

eb|-----------------------------------------|
Bb|-----------------------------------------|
Gb|-7-7--7-7--7-7--7-7--7-7--7-7--7-7--4-4--|
Db|-7-7--7-7--7-7--7-7--7-7--7-7--7-7--2-2--|
Ab|-5-5--5-5--5-5--5-5--5-5--5-5--5-5--2-2--|
Db|-0-0--0-0--0-0--0-0--0-0--0-0--0-0--2-2--|


Outro: just make noise
eb|-0-------------------------------------------------|
Bb|-0--------------14-----14~~--------<5>-------------|
Gb|-0----------11------11-----------------<5>---------|
Db|-0-------------------------------------------------|
Ab|-0-------------------------------------------------|
Db|-0-------------------------------------------------|
Tap to rate this tab
# A B C D E F G H I J K L M N O P Q R S T U V W X Y Z