Song name
# A B C D E F G H I J K L M N O P Q R S T U V W X Y Z

Beach Fossils - The Horse tab

Beach Fossils - The Horse


INTRO

e|-----------------------------------------------------|
b|-----------------------------------------------------|
G|-7-4-7-4---4-7-4-------------------------------------|
D|---------7-------7-9-7-5-5-5-7---5-5-----------------|
A|-------------------------------7---------------------|
E|-----------------------------------------------------|


VERSE

e|-----------------------------------------------------|
b|-----------------------------------------------------|
G|-----------------------------------------------------|
D|-----------------------------------------------------|
A|--2-2-2-2---5-5-5-5----------------------------------|
E|--------------------3-3-3-3--------------------------|


SOLO


e|-----------------------------------------------------|
b|-----------------------------------------------------|
G|-----------------------------------------------------|
D|-----------9-9-9-9-7-5----------5--------------------|
A|--5-5-5-5---------------7-7-7-7----------------------|
E|-----------------------------------------------------|
Tap to rate this tab
 
# A B C D E F G H I J K L M N O P Q R S T U V W X Y Z