Song name
# A B C D E F G H I J K L M N O P Q R S T U V W X Y Z

Beatles - Norwegian Wood tab

The Beatles - Norwegian Wood

I wasn't really satisfied with the tabs out there so i decided to do my own
:D 
However, have to give kudos to the other tabs out there, helped me tab this through.

Enjoy! - Blaqic3

---------------------------
======Capo 2nd Fret =======
---------------------------

Intro
Verse 1
Chorus
verse 2
Interlude
Chorus
Verse 3
End


Standard Guitar Tuning -
 E- A -D -G -B- e

==== Intro / Verse 1======

e|---2-2-2------------|---2-2-2--------|---2-2-2--------|-----2-2-2-2-2-2-|
B|---3-3-3------3-3---|---3-3-3--------|---3-3-3---3----|-----3-3-3-3-3-3-|
G|-2-2-2-2--2h4-2-0---|-2-2-2-2---0-2--|-2-2-2-2---0----|-2---2-2-2-2-2-2-|  Repeat 4x
D|-0------------------|-4-------2---4--|-0-----------0--|-0---0-0-0-0-0-0-|
A|--------------------|----------------|---------3---2--|-0---------------| 
E|--------------------|----------------|----------------|-----------------|



===== Sitar======
(it sounds better if  you add those octaves imo :D)

                                          ****************
e|-7------7h9-7------|-------------------|----------5------|-------------|
B|--------------10---|-9------7-9-10-----|-----------------|-------------|
G|-4------4-6-4------|---------------7s9-|-----6s7--2--6s4-|(4)----------|    Comes in after 
D|--------------7----|-6------4-6-7------|-----------------|-------------|    intros played once
A|-------------------|---------------5s7-|-----4-5-----4-2-|(2)----------|
E|-------------------|-------------------|-----------------|-------------| 

***** = played twice lead comes in





 \\\\\\\\\\======Chorus=====//////////

       -Em-                    -A- 
|-3-3-3-3-3-3-3-3-3-| |-5-5-5-5-5-5-5-5-5-|
|-5-5-5-5-5-5-5-5-5-| |-5-5-5-5-5-5-5-5-5-|
|-4-4-4-4-4-4-4-4-4-| |-6-6-6-6-6-6-6-6-6-|
|-5-5-5-5-5-5-5-5-5-| |-7-7-7-7-7-7-7-7-7-|
|-3-3-3-3-3-3-3-3-3-| |-7-7-7-7-7-7-7-7-7-|
|-3-3-3-3-3-3-3-3-3-| |-5-5-5-5-5-5-5-5-5-|

       -Em-               -F#m-     -B- 
|-3-3-3-3-3-3-3-3-3-| |-5-5-5-5-5-7-7-7-7-7|
|-5-5-5-5-5-5-5-5-5-| |-7-7-7-7-7-7-7-7-7-7|
|-4-4-4-4-4-4-4-4-4-| |-6-6-6-6-6-8-8-8-8-8|
|-5-5-5-5-5-5-5-5-5-| |-7-7-7-7-7-9-9-9-9-9|
|-3-3-3-3-3-3-3-3-3-| |-5-5-5-5-5-9-9-9-9-9|
|-3-3-3-3-3-3-3-3-3-| |-5-5-5-5-5-7-7-7-7-7|



\\\\\\\\\=====Verse 2========///////////

e|---2-2-2------------|---2-2-2--------|---2-2-2--------|-----2-2-2-2-2-2-|
B|---3-3-3------3-3---|---3-3-3--------|---3-3-3---3----|-----3-3-3-3-3-3-|
G|-2-2-2-2--2h4-2-0---|-2-2-2-2---0-2--|-2-2-2-2---0----|-2---2-2-2-2-2-2-|  Repeat 2x
D|-0------------------|-4-------2---4--|-0-----------0--|-0---0-0-0-0-0-0-|
A|--------------------|----------------|---------3---2--|-0---------------| 
E|--------------------|----------------|----------------|-----------------|



===== Sitar======

    ~~let ring~~                            ---Let ring---      
e|-------------------|-------------------|-----------------|--------------|
B|-------------------|-------------------|-----------------|--------------|
G|-------------------|-------------------|-----------------|--------------|  Repeat 2x
D|-------------------|-------------------|-----------------|--------------|
A|-2~~~~-------------|-------------------|-2~~~~~----------|--------------|
E|-------------------|-------------------|-----------------|--------------| 

(pick as close to the bridge as possible to get that clingy ish sound)


___________________________________
\\\\\\\\\\===Interlude=====////////

e|---2-2-2------------|---2-2-2--------|---2-2-2--------|-----2-2-2-2-2-2-|
B|---3-3-3------3-3---|---3-3-3--------|---3-3-3---3----|-----3-3-3-3-3-3-|
G|-2-2-2-2--2h4-2-0---|-2-2-2-2---0-2--|-2-2-2-2---0----|-2---2-2-2-2-2-2-|  Repeat 2x
D|-0------------------|-4-------2---4--|-0-----------0--|-0---0-0-0-0-0-0-|
A|--------------------|----------------|---------3---2--|-0---------------| 
E|--------------------|----------------|----------------|-----------------|



------Sitar------
                                          
e|-7------7h9-7------|-------------------|----------5------|-------------|
B|--------------10---|-9------7-9-10-----|-----------------|-------------|
G|-4------4-6-4------|---------------7s9-|-----6s7--2--6s4-|(4)----------|   Repeat 2x
D|--------------7----|-6------4-6-7------|-----------------|-------------|    
A|-------------------|---------------5s7-|-----4-5-----4-2-|(2)----------|
E|-------------------|-------------------|-----------------|-------------| 

 
\\\\\\\\\\====== Chorus=====//////////


\\\\\\\\\\====== Verse 3===////////// (played like 2nd Verse)


\\\\\\\\\\====== End======//////////
e|---2-2-2------------|---2-2-2--------|---2-2-2--------|-----2-2-2-2-2-2-|
B|---3-3-3------3-3---|---3-3-3--------|---3-3-3---3----|-----3-3-3-3-3-3-|
G|-2-2-2-2--2h4-2-0---|-2-2-2-2---0-2--|-2-2-2-2---0----|-2---2-2-2-2-2-2-|
D|-0------------------|-4-------2---4--|-0-----------0--|-0---0-0-0-0-0-0-|
A|--------------------|----------------|---------3---2--|-0---------------| 
E|--------------------|----------------|----------------|-----------------|



------Sitar------
                                          
e|-7------7h9-7------|-------------------|----------5------|-------------|
B|--------------10---|-9------7-9-10-----|-----------------|-------------|
G|-4------4-6-4------|---------------7s9-|-----6s7--2--6s4-|(4)----------| 
D|--------------7----|-6------4-6-7------|-----------------|-------------|    
A|-------------------|---------------5s7-|-----4-5-----4-2-|(2)----------|
E|-------------------|-------------------|-----------------|-------------| 
Tap to rate this tab
# A B C D E F G H I J K L M N O P Q R S T U V W X Y Z