Song name
# A B C D E F G H I J K L M N O P Q R S T U V W X Y Z

Beck - End Of The Day chords

Highlighted       Show chord diagrams
-------------------------------------------------------------------------------
                             'End of the Day' - Beck
-------------------------------------------------------------------------------
Tabbed by: http://profile.ultimate-guitar.com/throwshapes/

This is a beautiful song by Beck, which deserved a tab so that everyone could play it.

Tuning:Standard EADGBe

G
I've seen the end of the day come too soon
G
Not a lot to say, not a lot to do
G
You played the game, you owe nothing to yourself
G
Rest a day, for tomorrow you can't tell
D   F   C   Em
You can't tell

G
I've seen the end of the day come too late
G
Seen the love you had turning into hate
G
Had to act like I didn't even care
G
But I did so I got stranded standing there
D   F   C   Em
Standing there

C  Em  Bb  D    
It's nothing that I haven't seen before
C  Em  Bb  D
But it still kills me like it did before
C  Em  Bb  D
No it's nothing that I haven't seen before
C  Em  Bb  D
But it still kills me like it did before


G
I've seen the end of the day come too soon
G
Like the prison dogs they set out after you
G
You owe nothing to the past but wasted time
G
To serve a sentence that was only in your mind
D   F   C   Em
In your mind

C  Em  Bb  D    
It's nothing that I haven't seen before
C  Em  Bb  D
But it still kills me like it did before
C  Em  Bb  D
No it's nothing that I haven't seen before




This is the little ditty at the beginning of the song:
e|---------------------------------------------------------------------------|
B|0-(slide all the way to 12)------12-----------------0--0--7----------------|
G|------------------------------------11-----7-9------2--4--7----------------|
D|---------------------------------------------------------------------------|
A|---------------------------------------------------------------------------|
E|---------------------------------------------------------------------------|

And the little one at the ending:
e|-----------------------------10--------------------------------------------|
B|-7-8-10-10---------7-8-10-10-----------------------------------------------|
G|-----------7---------------------------------------------------------------|
D|---------------------------------------------------------------------------|
A|---------------------------------------------------------------------------|
E|---------------------------------------------------------------------------|
Tap to rate this tab
# A B C D E F G H I J K L M N O P Q R S T U V W X Y Z