Song name
# A B C D E F G H I J K L M N O P Q R S T U V W X Y Z

Becoming The Archetype - How Great Thou Art tab

Tabbed By:ubergerman466

Email:TheDaywalker466@aol.com

hey this is my first tab i have ever done in my life!
so go easy on me or ill blow your planet up haha jk XD
if you dont get the right sound on the power chords then try to up strumming them and it 
sound alot better
you can also palm mute the top string 0's to get a better acoustic sound

D|-------------------------------------------------------------------------|
A|-------------------------------------------------------------------------|
F|-------------------------------------------------------------------------|
C|-----0---3---2----------------0--------------------------0----7---5---2--|
G|---0---0-0---0---3---3-5----0---0--5---4---7---8~~~~---0---0--5---3---0--|
C|-0---------0---0---0------0--------0-0-0-0-0-0-------0----------0---0----|

D|---------------------------------------|
A|---------------------------------------|
F|---------------------------------------|
C|----2-3--3---3---3---3---2---2---3---0-|
G|----0-0--1---1---1---1---4---4---5---0-|
C|--0--------0---0---0---0---0---0---0-0-|
Tap to rate this tab
 
# A B C D E F G H I J K L M N O P Q R S T U V W X Y Z